------------------------------------------------------------------------------- 
MICHAEL - Son Of Sam 
------------------------------------------------------------------------------- 

By: Nick G 

(VERSE) 
e|---------------------------------------------------------------------------| 
B|---------------------------------------------------------------------------| 
G|---------------------------------------------------------------------------| 
D|---------------------------------------------------------------------------| 
A|--7777--5555-----(10X)-----------------------------------------------------| 
E|--5555--3333---------------------------------------------------------------| 

(CHOURS) 
(lead guitar) 
e|---------------------------------------------------------------------------| 
B|----11---9-----------------------------------------------------------------| 
G|-------------7-----------7----79--7-9-7~~------(repeat twice)--------------| 
D|---------------------9------79---------------------------------------------| 
A|---------------------------------------------------------------------------| 
E|---------------------------------------------------------------------------| 

(rhythm guitar) 
e|---------------------------------------------------------------------------| 
B|---------------------------------------------------------------------------| 
G|---------------------------------------------------------------------------| 
D|--666666--444444----------333333-------------------------------------------| 
A|--444444--222222--222222--111111-------------------------------------------| 
E|------------------000000---------------------------------------------------| 

play verse again 
then 
play chours,but more times(around 5X) then play this 

BREAKDOWN 
e|---------------------------------------------------------------------------| 
B|---------------------------------------------------------------------------| 
G|---------------------------------------------------------------------------| 
D|---7/5/7-----7/5/7-------------------------7/5/7-----5/7/5-----------------| 
A|---5/3/5-----5/3/3-----3333333333----------5/3/5-----5/3/5------555555555--| 
E|-----------------------1111111111-------------------------------333333333--| 
(palm muted) (palm muted,then open) 

then back into verse,but lead plays this.... 

(some effect on the first 11's,maybe phaser or something) 
e|---------------------------------------------------------------------------| 
B|-11^~~-(8X)------11^--7p6p5-7p6p5-(7X) ------------------------------------| 
G|---------------------------------------------------------------------------| 
D|---------------------------------------------------------------------------| 
A|---------------------------------------------------------------------------| 
E|---------------------------------------------------------------------------| 

end like this 
e|---------------------------------------------------------------------------| 
B|----11^--------------------------------------------------------------------| 
G|---------------------------------------------------------------------------| 
D|----------55--3------------------------------------------------------------| 
A|----------33--1------------------------------------------------------------| 
E|---------------------------------------------------------------------------| 

im not that sure on the lead chorus,but it sounds pretty right to me,you
also use the same effect as you do towards the end on it.other than that,im
pretty sure everything is 100% right,if not,its pretty close and you could
easily make the adjustments it needs. 

have any question or wanna comment on the tab,e-mail me at njg86@yahoo.com,thanks 

===============================================================================
Show more