• Song:

    High School Life - Sopiz

  • Artist:

    Sopiz

sponsored links
Song: High School Life 
Artist: Sopiz 
Tabber: jethro_arce@yahoo.com
Tuning: Standard

pa ulit ulit lang nmen yung mga parts kayo na bhla mag timing ^_^
  
Intro:
|--------------------|
|--------------------|  2X
|--4~-2~-0~----------|
|-----------4~-------|  do it in 

|--------------------------------------|
|--------------------------------------|  2X
|--44444444-22222222-00000000----------|
|-----------------------------44444444-| 

Verse :

|------66-----44----22---------------|
|-------------------------66---------|  
|--444----222----000-----------------|
|---------------------444----(444)---|

|--------------------------------------|
|--------------------------------------|  
|--44444444-22222222-00000000----------|
|-----------------------------44444444-| 

Refrain:

|---------------------------------------|
|---------------------------------------|  2X
|---------------------------------------|
|---5555-4444-5555-4444-55555555-4444444|

Solo:

|--------------------------------------|
|--------------------------------------|  
|--44444444-22222222-00000000----------|  
|-----------------------------44444444-| 


Ending : 

|----------------------------|
|----------------------------|  2X
|--4~-2~-0~-11~-or-----------|
|-------------------4~--(2~)-|
Show more
sponsored links
sponsored links