• Song:

    See You Later

  • Artist:

    Soul Asylum

  • Album:

    After the Flood: Live F...

sponsored links
Intro: D5 D5 D5

          D5           D5         D5
e-3-2-0-------3-2-0-------3-2-0------------------ | 
B-------3-----------3-----------3---------------- | 
G---------2~----------3~----------4~------------- | 
D------------------------------------------------ | 
A------------------------------------------------ | 
E------------------------------------------------ | 

          D5               D5             D5
e-3-2-0-------------------------------------------- | 
B-------3-----5/7-3-0-3-----5/7-3-0-3---------- | 
G---------2~--------------3~--------------4~------- | 
D-------------------------------------------------- | 
A-------------------------------------------------- | 
E-------------------------------------------------- | 

  D5               Em11            D5
e-2---2---2---2---3---3---3---3---2---2---2---2----------------- | 
B---3---3---3---3---3---3---3---3---3---3---3---3--------------- | 
G--------------------------------------------------2-0---------- | 
D-------------------------------------------------------4--2-0-- | 
A--------------------------------------------------------------- | 
E--------------------------------------------------------------- | 

Pattern: One guitar plays the chords the other plays this.

  D5               Em11            D5            G5
e-2---2---2---2---3---3---3---3---2---2---2---2---3---3---3---3----- | 
B---3---3---3---3---3---3---3---3---3---3---3---3---3---3---3---3--- | 
G------------------------------------------------------------------- | 
D------------------------------------------------------------------- | 
A------------------------------------------------------------------- | 
E------------------------------------------------------------------- | 

D5      Em11           G5  G5  G5
I guess I'll see you later
Sweet manipulater
And how I thank you dearly
For helpin' me see clearly

   D5                       C5
e--------------------------------------------------------------- | 
B------3-----3-----3-----3-----3-----3-----3-----3-------------- | 
G----0-----0-----0-----0-----0-----0-----0-----0---------------- | 
D--0-----0-----0-----0------------------------------------------ | 
A--------------------------3-----3-----3-----3------------------ | 
E--------------------------------------------------------------- | 

Yes sir, no sir, let me go
Sir I don't even want to know
    D5                            C5
Sir I've had all that I can take today


E5           G#5          A5
But I found out so long ago
E5           G#5          A5
And it don't matter if it shows
E5           G#5          A5
And its up in the air tonight
E5           G#5          A5
Yes its up in the air tonight

Now your anticipating,
That nostalgia's waiting,
If your social statement,
Boxed up in the basement,

Yes ma'm , no ma'm , let me go
Ma'm I don't even give a damn
Ma'm I suppose I'll stand another day

I put my flag despite my plans
I hope this flight it never ends
And its up in the air tonight
Yes its up in the air tonight

            D5                Em11
'Cause I've got all night
To lie here on the floor
                 D5      Em11
I've got all night
Just like the night before
So make it soon
Em11                 D5          G5
And I guess I'll see you later
I guess I'll see you later
I guess I'll see you later
I guess I'll see you later
I guess I'll see you, see you
See you, see you, see you, see you later
       D5         Em11  D5
Its so up in the air tonight
Show more
sponsored links
sponsored links