MAYBE I'LL COME DOWN
written/performed by soul coughing
from the album "el oso"
transcribed by james meakim (mistameaks@aol.com)


like most of Soul C's stuff, this is played on an upright, but sounds just 
fine on an electric.

    main riff
G|----------------9p7----------------|
D|----10--9--7-0------0--10--9--7----|
A|-5-------------------------------3-|
E|-----------------------------------|

    chorus
G|---------------------------------|
D|---------------------------------|
A|---------------------------------|
E|-1-1-1-1-5-5-5-6-8-8-8-8-3-3-3-3-|


if anyone has any soul coughing tabs not here in the archive, let me know.

~meakim
Show more