• Song:

    To End It All

  • Artist:

    Soul Embraced

  • Album:

    Dead Alive

Soul Embraced- To End it All (Intro)

Drop Db

Guitar 1 (Main Lead)
-------------------------------------------------------------|
-------------------1h2-0-4h5-4--------------------1h2-0------|
-------------1h2-1--------------------------1h2-1------------|
---------5-6----------------------------5-6------------------|
------4------------------------------4-------------------4-3-|
---0------------------------------0--------------------------|

Drop Db

Guitar 2 (Bass Lead)
-------------------------------------------------------------|
-------------------------1h2-1-------------------------------|
-------------------1h2-1--------------------------1h2-1------|
---------5-6-2h4-2----------------------5-6-2h4-2------------|
------4------------------------------4-----------------------|
---0-------------------------------0---------------------8-7-|
Show more