• Song:

    The Light

  • Artist:

    Soulidium

  • Album:

    Children Of Chaos

-----------------------------------------------------|
-----------------------------------------------------|
---------8----------1----------8------1-3-3---1-3-3--|
-0-0--0-----0-0--0-----0-0--0------------------------|

-----------------------------------------------------|
--------------------------------------3-5-5---3-5-5--|
---------8----------1----------8---------------------|
-0-0--0-----0-0--0-----0-0--0------------------------|

Repeat twice


-------------------------------------|
-------------------------------------|
-------------------------------------|
---0-----8-----3-----10--------------|

Repeat twice


-----------------------------------------------------|
-----------------------------------------------------|
--------------------------------------1-3-3---1-3-3--|
-0-0--0-0-----0-0--0-----0-0--0-0--------------------|

-----------------------------------------------------|
--------------------------------------3-5-5---3-5-5--|
-----------------------------------------------------|
-0-0--0-0-----0-0--0-----0-0--0-0--------------------|


-------------------------------|------|
-------------------------------|------|
-------------------------------|------|
---0-----8-----3-----10--------|---0--|   Ring open on the last one

--------------------------------------------------|
--------------------------------------------------|
--------------------------------------------------|
--0-0--0-0---0-0--0----8-8--8-8--8-8--8-----------|

--------------------------------------------------|
--------------------------------------------------|
--3-3--3-3--3-3--3---1-1--1--1--3-3--3--3---------|
--------------------------------------------------|

-----------------------|
-----------------------|
-----------------------|
--0-0--0-0--0-0--0-0---|
Repeat 3 times, on the last one take out the last 2 notes.


-------------------------------------|
-------------------------------------|
-------------------------------------|
---0-----8-----3-----10--------------|

repeat twice

Then ending gets a bit tricky.

I wanted to write this tab to get the ball moving in getting this sweet song tabed out.

Enjoy!!!
Show more