• Song:

    Outrage

  • Artist:

    Soulive

  • Album:

    Live at the Blue Note T...

Since there are no Soulive tabs up here, I'll be the first to post.  If you've never 
of Soullive, but love Jazz, Funk, and Blues infused music, you're sure to love Soulive.

Soulive does not have a bassist, so all bass lines are done by the Keyboardist, Neal Evans.

Check this Youtube video to see what this guy can do!
http://www.youtube.com/watch?v=TXq81mvDoT0

When you get done with that, stop on by and check out my band, "CHOCOLATE CITY AND THE 
SUBURBS".
http://www.myspace.com/ccandthevs

Any Questions, feel free to email me.  dentlessdave at hotmail dot com


HEAD:

G|------------------------------------------------------------------------|
D|----7-------------------------------7-----------------------------------|
A|------5-6-7---------5-6-7--------------5-6-7---------5-6-7--------------|
E|--5----------0--0-0--------3-4---5------------0--0-0--------3-4---5-----|

Every so often, there is a break in the line and it's just an open E.  Then a slide from 
the 12th fret to go back into the Head Groove.

G|----|
D|----|
A|----|
E|-0--|


BRIDGE:

G|-------------------------------------------------------------|
D|-------------------------------------------------------------|
A|--9-9--9-8-7--7-----------5-4-3--3---------------------------|
E|----------------1-2-3--3-------------3-2--0-0-0-0-0-0-0-0----|

Again, there is also a slide at the very end of the open E in the Bridge before you go 
the Head again.


[dd]dentlessdave
Show more