-------------------------------------------------------------------------------
                             Crank Dat (Soulja Boy) Remix - Travis Barker
                                        (Original by Soulja Boy)
-------------------------------------------------------------------------------
Tabbed by:Woody Dean
Email: wood_e_dean@hotmail.com

Tuning: Drop D


|---8--------------8--------------------------------------------------|
|------8---9------------8---------------------------------------------|
|---------------------------------------------------------------------|     Repeated
|---------------------------------------------------------------------|   Throughout
|---------------------------------------------------------------------|        Song
|---------------------------------------------------------------------|

|----------------------------------------------------------------------------|
|----------------------------------------------------------------------------|
|----------------------------------------------------------------------------|
|---10-x-x-10---x---10-x-x-10----x----6-x-6----x-----8-x-8-------------------|
|---10-x-x-10---x---10-x-x-10----x----6-x-6----x-----8-x-8-------------------|
|---10-x-x-10---x---10-x-x-10----x----6-x-6----x-----8-x-8-------------------|


|-----------------------------------------------------------------------|
|-----------------------------------------------------------------------|
|-----------------------------------------------------------------------|
|----66666666--88888888--10101010101010101010101010101010---------------|
|----66666666--88888888--10101010101010101010101010101010---------------|
|----66666666--88888888--10101010101010101010101010101010---------------|
Show more