• Song:

    Way To Your Heart

  • Artist:

    Soulsister

----------------------------------------------------------------------------
	         THE WAY TO YOUR HEART - Soulsister
----------------------------------------------------------------------------

Tabbed By : AƤron Vanspauwen
e-mail: aaron13700@hotmail.com

Tuning:Standard


Intro:

G|----------------|
D|----------------|   x 4
A|----------464-2-|
E|2-2-2-2-2-------|
            4h6-4

Verse:

G|----------------|----------------|
D|----------------|----------------|
A|--------1-1-1-1-|4-4-4-4-2-2-2-2-|  x4
E|2-2-2-2---------|----------------|


Prechorus:

G|----------------|----------------|----------------|----------------|
D|----------------|----------------|----------------|----------------|
A|1-1-1-1-1-1-1-1-|2-2-2-2-2-2-2-2-|----------------|4-4-4-4-4-4-4-4-|
E|----------------|----------------|4-4-4-4-4-4-4-4-|----------------|

Verse:

G|----------------|----------------|
D|----------------|----------------|
A|--------1-1-1-1-|4-4-4-4-2-2-2-2-|  x2
E|2-2-2-2---------|----------------|

Prechorus:

G|----------------|----------------|----------------|----------------|
D|----------------|----------------|----------------|----------------|
A|1-1-1-1-1-1-1-1-|2-2-2-2-2-2-2-2-|----------------|4-4-4-4-4-4-4-4-|
E|----------------|----------------|4-4-4-4-4-4-4-4-|----------------|

Chorus: 

G|----------------|----------------|
D|----------------|----------------|     x2
A|6-6-6-6-3-3-3-3-|--------1-1-1-1-|
E|----------------|4-4-4-4---------|

G|----------------|----------------|----------------|--------|
D|----------------|----------------|----------------|--------|
A|6-6-6-6---------|--------1-1-1-1-|6-6-6-6-6-6-6-6-|1-1-1-1-|
E|--------3-3-3-3-|4-4-4-4---------|----------------|--------|

Verse:

G|----------------|----------------|
D|----------------|----------------|
A|--------1-1-1-1-|4-4-4-4-2-2-2-2-|  x4
E|2-2-2-2---------|----------------|

Prechorus:

G|----------------|----------------|----------------|----------------|
D|----------------|----------------|----------------|----------------|
A|1-1-1-1-1-1-1-1-|2-2-2-2-2-2-2-2-|----------------|4-4-4-4-4-4-4-4-|
E|----------------|----------------|4-4-4-4-4-4-4-4-|----------------|

Bridge:

G|----------------|----------------|
D|----------------|----------------| x4
A|1-1-1-1---------|6-6-6-6-3-3-3-3-|
E|--------4-4-4-4-|----------------|

Verse(instrumental):

G|----------------|----------------|
D|----------------|----------------|
A|--------1-1-1-1-|4-4-4-4-2-2-2-2-|  x2
E|2-2-2-2---------|----------------|

Prechorus:

G|----------------|----------------|----------------|----------------|
D|----------------|----------------|----------------|----------------|
A|1-1-1-1-1-1-1-1-|2-2-2-2-2-2-2-2-|----------------|4-4-4-4-4-4-4-4-|
E|----------------|----------------|4-4-4-4-4-4-4-4-|----------------|

Chorus: 

G|----------------|----------------|
D|----------------|----------------|     x2
A|6-6-6-6-3-3-3-3-|--------1-1-1-1-|
E|----------------|4-4-4-4---------|

G|----------------|----------------|----------------|--------|
D|----------------|----------------|----------------|--------|
A|6-6-6-6---------|--------1-1-1-1-|6-6-6-6-6-6-6-6-|1-1-1-1-|
E|--------3-3-3-3-|4-4-4-4---------|----------------|--------|  

Chorus: 

G|----------------|----------------|
D|----------------|----------------|     x2
A|6-6-6-6-3-3-3-3-|--------1-1-1-1-|
E|----------------|4-4-4-4---------|

G|----------------|----------------|----------------|--------|
D|----------------|----------------|----------------|--------|
A|6-6-6-6---------|--------1-1-1-1-|6-6-6-6-6-6-6-6-|1-1-1-1-|
E|--------3-3-3-3-|4-4-4-4---------|----------------|--------|

Chorus(fade away): 

G|----------------|----------------|
D|----------------|----------------|     x2
A|6-6-6-6-3-3-3-3-|--------1-1-1-1-|
E|----------------|4-4-4-4---------|

G|----------------|----------------|----------------|--------|
D|----------------|----------------|----------------|--------|
A|6-6-6-6---------|--------1-1-1-1-|6-6-6-6-6-6-6-6-|1-1-1-1-|
E|--------3-3-3-3-|4-4-4-4---------|----------------|--------|
Show more