• Song:

    Bangleaf

  • Artist:

    Sourvein

  • Album:

    Sourvein/ Will to Mangl...

-----------------------------------------------------------------------------
			     Sourvein - Bangleaf
-----------------------------------------------------------------------------

Tabbed By : EssJayDM

Tuning: C standard (C-F-Bb-Eb)


This is the opening track from the Will To Mangle album and is a simple song to learn, only 3
easy riffs. For best results use as much distortion as possible. If you are able to correct a
mistake I have made then please leave a comment.
As far as I know the guitar is playing the same thing as the bass, just using power chords.


Verses

Eb|--------------------------------------------|
Bb|--------------------------------------------|
 F|---7-5-7~----7-5-7-5-5-----7-5-7~---/10~-9~-|
 C|-0---------0-------------0------------------|


Chorus

Eb|-----------------------------------|
Bb|-----------------------------------|
 F|---------/8~-7~----------/8-7-5----|
 C|-0-5-7~----------0-5-7~---------7~-|


Bridge/solo
(vibrato each note, there are some slight runs thrown in occasionally during the guitar solo.)

Eb|--------------------|
Bb|--------------------|
 F|--------------------|
 C|-7-6-/10-5--7-6-8-5-|


Towards the end of the song the bridge builds up a bit more speed until each note is played
twice.

Eb|------------------------------------|
Bb|------------------------------------|
 F|------------------------------------|
 C|-7-7-6-6-10-10-5-5--7-7-6-6-8-8-5-5-|



| /  slide up
| \  slide down
| h  hammer-on
| p  pull-off
| ~  vibrato
| +  harmonic
| x  Mute note
=============================================================================
Show more