• Song:

    Camel Walk

  • Artist:

    Southern Culture On The Skids

  • Album:

    Camel Walk

Southern Culture on the Skids: Camel walk

Guitar intro: no bass

Bass parts start at:
0:23
G|------------------------|
D|------------------------|
A|------4-----------------|
E|-6-6--------6-6-4-4-4-4-|    4x


0:39 yo ye pharaohs...
G-|-----------------------|
D-|-----------------------|
A-|-----------------------|
E-|-4~4-2~2-4~4-2~2-0~0-2-|

0:52
G-|----------------------------------|
D-|----------------------------------|
A-|-1~/13\1--------------------------|
E-|-----------2/14\2---2/6\2---2/6\2-|

1:07
G|------------------------|
D|------------------------|
A|------4-----------------|
E|-6-6--------6-6-4-4-4-4-|    4x

1:22 who's in charge here...
G-|-----------------------|
D-|-----------------------|
A-|-----------------------|
E-|-4~4-2~2-4~4-2~2-0~0-2-|

1:35
G-|----------------------------------|
D-|----------------------------------|
A-|-1~/13\1--------------------------|
E-|-----------2/14\2---2/6\2---2/6\2-|

1:50
G|------------------------|
D|------------------------|
A|------4-----------------|
E|-6-6--------6-6-4-4-4-4-|    4x

2:06 say you don't think there's anyway...
G-|-----------------------|
D-|-----------------------|
A-|-----------------------|
E-|-4~4-2~2-4~4-2~2-0~0-2-|

2:18
G-|----------------------------------|
D-|----------------------------------|
A-|-1~/13\1--------------------------|
E-|-----------2/14\2---2/6\2---2/6\2-|

Ends at 2:33
G-|----------------------------------|
D-|----------------------------------|
A-|----------------------------------|
E-|-6-6-6-6--------------------------|


There it is, that should be all. A steady patern that keeps repeating itself, but fun to 
play though!
I hope you'll enjoy playing it!
Show more