• Song:

    T-shirt Sun Tan

  • Artist:

    Stereophonics

  • Album:

    Performance And Cocktai...

----------------------------------------------------------------------------
		   T-Shirt Sun Tan  - Stereophonics
----------------------------------------------------------------------------
Tabbed by: Jack The Hat
Email: jackthehat93@hotmail.co.uk

Tuning: Standard

 
Intro:
e|---------7------------|
B|-----------5-5---5----|
G|------6--------6------|x4
D|---7------------------|
A|----------------------|
E|----------------------|

Verse: This is the main riff
      A# (x1333x@1)    Db (x43121@1)    D (xx0232@1)   E (022100@1)                          G#e|----x-------x-------x-----x-------------------------|---3---| (xx1114@1)B|----5-------4-------5-----7--You swap the E for-----|---3---|
G|----6-------6-------7-----9--a G# on the one before-|---4---|
D|----7-------6-------7-----9--the chorus-------------|---5---|
A|----7-------4-------5-----7-------------------------|---5---|
E|----5-------4-------5-----7-------------------------|---3---|

Chorus:
       C (x32010@1)    F (133211@1)    A# (x1333x@1) Bbe|-----3------1------5----6-------------------------------------------| (x1333x@1)B|-----3------1------5----6-------------------------------------------|
G|-----5------2------6----7-And it goes to F at the end of the chorus-|
D|-----5------3------7----8-------------------------------------------|
A|-----3------3------7----8-------------------------------------------|
E|-----3------O------5----6-------------------------------------------|

Middle: 
    G (320003@1) F (133211@1)                  E (022100@1) F (133211@1)G# (xx1114@1) Fe|--3---1--------------------x---1---3---1--| (133211@1)B|--O---1--------------------x---1---3---1--|
G|--O---2---5-4-2-O--x2-then-1---2---4---2--|
D|--O---3--------------------2---3---5---3--|
A|--2---3--------------------2---3---5---3--|
E|--3---O--------------------O---O---3---O--|
G (320003@1)                    FFrom (133211@1)me to me to me to you x2
E (022100@1)                    FFrom (133211@1)me to me to me to you
G# (xx1114@1)                   FFrom (133211@1)me to me to me to you

Then you do the chorus again twice, but one the 2nd dont do vocals

then finish on this: 
      D (xx0232@1)        G#e|----x----------3--------------7---------------------7-| (xx1114@1)B|----3----------3----------------5-5---5-x3-------5--5-|
G|----5----------4------------6-------6----------6----6-|
D|----5----------5----------7------------------7------7-|
A|----3----------5--------------------------------------|
E|----3----------3--------------------------------------|

Ad this is the whole song......woohoo i've completed my third tab!
I'm not sure weather this is hard or easy so ill put it as intermediate

| /  slide up
|   slide down
| h  hammer-on
| p  pull-off
| ~  vibrato
| +  harmonic
| x  dont play
===========================================================================


Show more