• Song:

    Scarlet Tears Bass

  • Artist:

    Steryle

sponsored links
Full Song. Everything is 100% correct. Hope you enjoy.
Tuning is High To Low. (F#, C#, G#, Eflat, C#)
This is my 1st Tab so if you have any trouble playing this song email me at:
perfectdarkzero_360@yahoo.com

Intro (last measure of intro fade the 10 with guitar strum and cymbal)

F#|--14--14--14--12--15--14--12--12--12--10--10--10|
C#|----00--00--00--00--00--00--00--00--00--00--00--|
G#|------------------------------------------------|
Eb|------------------------------------------------|
C#|------------------------------------------------|

Chorus (As the sunlight fades...and Is it worth the time,etc)

These two parts alternate
|----------------------------------|
|----------------------------------|
|5555555555555555/33333333/88888888|
|----------------------------------|
|----------------------------------|

|-------------------------------------|
|------------------101010-------------|
|5555555555555555/33333333------999888|
|-------------------------------------|
|-------------------------------------|

Verse 1 and 2 Part 1 (Follow the heartache...and now that the heartache) I slap this 
so i do fast doubles, but if you use a pick you will need to stocatta pick triples

|-------------------------|
|-------------------------|
|-------------------------|
|-------------------------|
|00-00-00-00--------------|

Verse 1 and 2 Part 2 (They've seen me...They've seen me) I also slap this part and so i 
fast doubles and some sub-division with the higher parts

|--------------------------------------|
|---------33338877---------999914141414|
|--------------------------------------|
|--------------------------------------|
|00-00-00-00------00-00-00-00----------|

Heavy bridge (when David screams "STAINS!") 10's are tens
where the 10001000100 is its like 10openopen10openopen10open

|-----------------------------------|
|-----------------------------------|
|50050050300300308008008010001000100|
|-----------------------------------|
|-----------------------------------|

Bridge Part 2 (Somewhere near or during the Guitar solo)

|-----------------------------------------|
|-------------88887777--------------------|
|50050-50050-30030-------50050-50050-30030|
|-----------------------------------------|
|101010108888-----------------------------|

Now you know how to play Scarlet Tears by STERyLE. Go you.

Show more
sponsored links
sponsored links