#----------------------------------PLEASE NOTE---------------------------------#
#This file is the author's own work and represents their interpretation of the #
#song. You may only use this file for private study, scholarship, or research. #
#------------------------------------------------------------------------------#

I'M NOT DROWNING
As recorded by Steve Winwood
(From the 2008 Album NINE LIVES)


Transcribed by Adam Perlmutter

 Words and Music by Steve Winwood and Peter Godwin

 

Gtr I (Eb Ab Db Gb Bb Eb) - 'Rhythm Acoustic '
Gtr II (Eb Ab Db Gb Bb Eb) - 'Lead Acoustic '


 Intro
  Moderately Q=84
 1/164/4
  Gtr I
  S   S S S S eS (022000@1)S S S eS (022000@1)S S S   S S S S eS (022000@1)S S S eS (022000@1)S S S
|---|-----------------------------|-----------------------------|
|---|-----------------------------|-----------------------------|
|-4-|---4---4-4-4-4---4-4-4-4---4-|---4---4-4-4-4---4-4-4-4---4-|
|---|-----------------------------|-----------------------------|
|---|-----------------------------|-----------------------------|
|---|-----------------------------|-----------------------------|


  Gtr II
  E (022100@1) E (022100@1) +S      E (022100@1) S E.     S +E    S S   E (022100@1) E (022100@1) +S      E (022100@1) S E.     S +E    S S
|------------------------------------------|------------------------------------------|
|-----3---(3)b3.5-0---0--------------------|-----3---(3)b3.5-0---0--------------------|
|-----------------------2------------------|-----------------------2------------------|
|------------------------------2-(2)---0h1-|------------------------------2-(2)---0h1-|
|-2----------------------------------------|-2----------------------------------------|
|------------------------------------------|------------------------------------------|
|
| Gtr I
| S S S S  e (022000@1)      S S S  S e (022000@1)  S  S S S   S S S S  e (022000@1)      S S S  S e (022000@1)  S  S S S
|------------------------------------------|------------------------------------------|
|------------------------------------------|------------------------------------------|
|---4---4--4--------4-4----4-4----4--4---4-|---4---4--4--------4-4----4-4----4--4---4-|
|------------------------------------------|------------------------------------------|
|------------------------------------------|------------------------------------------|
|------------------------------------------|------------------------------------------|


  E (022100@1) E (022100@1) +S      E (022100@1) S E.     S +E    S S
|--------------------------------------------|
|-----3---(3)b3.5-0---0----------------------|
|-----------------------2--------------------|
|------------------------------2-(2)---0h1---|
|-2------------------------------------------|
|--------------------------------------------|
|
| S S S S  e (022000@1)      S S S  S e (022000@1)  S  S S S
|--------------------------------------------|
|--------------------------------------------|
|---4---4--4--------4-4----4-4----4--4---4---|
|--------------------------------------------|
|--------------------------------------------|
|--------------------------------------------|


  E (022100@1) E (022100@1) +S      E (022100@1) S E.     S +E    S S
|------------------------------------------|
|-----3---(3)b3.5-0---0--------------------|
|-----------------------2------------------|
|------------------------------2-(2)---0h1-|
|-2----------------------------------------|
|------------------------------------------|
|
| S S S S  e (022000@1)      S S S  S e (022000@1)  S  S S S
|------------------------------------------|
|------------------------------------------|
|---4---4--4--------4-4----4-4----4--4---4-|
|------------------------------------------|
|------------------------------------------|
|------------------------------------------|


  E (022100@1) E (022100@1) +S      E (022100@1) S E.     S E (022100@1) E (022100@1)   E (022100@1) E (022100@1) +S      E (022100@1) S E.     S E (022100@1) E|----------------------------------------|------------------------------------------| (022100@1)|-----3---(3)b3.5-0---0------------------|-----3---(3)b3.5-0---0--------------------|
|-----------------------2------0h1-------|-----------------------2------0h1---------|
|------------------------------------2---|------------------------------------2-----|
|----------------------------------------|------------------------------------------|
|-0--------------------------------------|-0----------------------------------------|
|
| S S S S  e (022000@1)      S S S  S e (022000@1) S S S S   S S S S  e (022000@1)      S S S  S e (022000@1) S S S S
|----------------------------------------|------------------------------------------|
|----------------------------------------|------------------------------------------|
|---4---4--4--------4-4----4-4---4-4---4-|---4---4--4--------4-4----4-4---4-4---4---|
|----------------------------------------|------------------------------------------|
|----------------------------------------|------------------------------------------|
|----------------------------------------|------------------------------------------|


  E (022100@1) E (022100@1) +S      E (022100@1) S E (022100@1) S S +E    S S   E (022100@1) E (022100@1) +S      E (022100@1) S E (022100@1) S S +E    E|-----------------------------------------|-----------------------------------------| (022100@1)|-----3---(3)b3.5-0---0-----0-------------|-----3---(3)b3.5-0---0-----0-------------|
|-----------------------2-----------------|-----------------------2-------------0---|
|-----------------------------2-(2)---0h1-|-----------------------------2-(2)---0---|
|-2---------------------------------------|-2---------------------------------------|
|-----------------------------------------|-----------------------------------------|
|
| S S S S  e (022000@1)      S S S S e (022000@1)  S  S S S   S S S S  e (022000@1)      S S S S e (022000@1)  S  S S S
|-----------------------------------------|-----------------------------------------|
|-----------------------------------------|-----------------------------------------|
|---4---4--4--------4-4---4-4----4--4---4-|---4---4--4--------4-4---4-4----4--4---4-|
|-----------------------------------------|-----------------------------------------|
|-----------------------------------------|-----------------------------------------|
|-----------------------------------------|-----------------------------------------|


  E (022100@1) E (022100@1) +S      E (022100@1) S E.     S +E    E|--------------------------------------------| (022100@1)|-----3---(3)b3.5-0---0----------------------|
|-----------------------2--------------------|
|------------------------------4-(4)---2-----|
|-2------------------------------------------|
|--------------------------------------------|
|
| S S S S  e (022000@1)      S S S  S e (022000@1)  S  S S S
|--------------------------------------------|
|--------------------------------------------|
|---4---4--4--------4-4----4-4----4--4---4---|
|--------------------------------------------|
|--------------------------------------------|
|--------------------------------------------|


  E (022100@1) E (022100@1) +S      E (022100@1) S +E.     S +E    E (022100@1)   +E    E (022100@1) +S      E (022100@1) S E (022100@1) S S +S  S S S
|-------------------------------------------|-------------------------------------------|
|-----3---(3)b3.5-0---0-(0)-----------------|-------3---(3)b3.5-0---0-----0-------0-----|
|-------------------------------------------|-------------------------2-----------------|
|-------------------------------------------|-------------------------------2-(2)---0h1-|
|-------------------------------5-(5)---2---|-(2)---------------------------------------|
|-0-----------------------------------------|-------------------------------------------|
|
| S S S S  e (022000@1)      S S  S  S e (022000@1)  S  S S S    S  S S S  e (022000@1)      S S S S e (022000@1)  S  S S S
|-------------------------------------------|-------------------------------------------|
|-------------------------------------------|-------------------------------------------|
|---4---4--4--------4-4-----4-4----4--4---4-|-----4---4--4--------4-4---4-4----4--4---4-|
|-------------------------------------------|-------------------------------------------|
|-------------------------------------------|-------------------------------------------|
|-------------------------------------------|-------------------------------------------|


  E (022100@1) E (022100@1) +S      E (022100@1) S E (022100@1) S S +S  S S S
|-------------------------------------------||
|-----3---(3)b3.5-0---0-----0-------0-------||
|-----------------------2-------------------||
|-----------------------------2-(2)---0h1---||
|-2-----------------------------------------||
|-------------------------------------------||
|
| S S S S  e (022000@1)      S S S S e (022000@1)  S  S S S
|-------------------------------------------||
|-------------------------------------------||
|---4---4--4--------4-4---4-4----4--4---4---||
|-------------------------------------------||
|-------------------------------------------||
|-------------------------------------------||


   Verse
    E (022100@1) E (022100@1) +S      E (022100@1) S E.     S +E    S S
||-------------------------------------------|
||o-----3---(3)b3.5-0---0--------------------|
||------------------------2------------------|
||-------------------------------2-(2)---0h1-|
||o-2----------------------------------------|
||-------------------------------------------|
|
|   S S S S  e (022000@1)      S S S  S e (022000@1)  S  S S S
||-------------------------------------------|
||o------------------------------------------|
||----4---4--4--------4-4----4-4----4--4---4-|
||-------------------------------------------|
||o------------------------------------------|
||-------------------------------------------|


  E (022100@1) E (022100@1) +S      E (022100@1) S E.     S +E    S S   E (022100@1) E (022100@1) +S      E (022100@1) S E.     S +E    S S
|------------------------------------------|-------------------------------------------|
|-----3---(3)b3.5-0---0--------------------|-----3---(3)b3.5-0---0---------------------|
|-----------------------2------------------|-----------------------2-------------------|
|------------------------------2-(2)---0h1-|------------------------------2-(2)---0h1--|
|-2----------------------------------------|-2-----------------------------------------|
|------------------------------------------|-------------------------------------------|
|
| S S S S  e (022000@1)      S S S  S e (022000@1)  S  S S S   S S S S  e (022000@1)      S S S  S e (022000@1)  S  S S S
|------------------------------------------|-------------------------------------------|
|------------------------------------------|-------------------------------------------|
|---4---4--4--------4-4----4-4----4--4---4-|---4---4--4--------4-4----4-4----4--4---4--|
|------------------------------------------|-------------------------------------------|
|------------------------------------------|-------------------------------------------|
|------------------------------------------|-------------------------------------------|


  E (022100@1) E (022100@1) +S      E (022100@1) S E.     S +E    S S
|------------------------------------------|
|-----3---(3)b3.5-0---0--------------------|
|-----------------------2------------------|
|------------------------------2-(2)---0h1-|
|-2----------------------------------------|
|------------------------------------------|
|
| S S S S  e (022000@1)      S S S  S e (022000@1)  S  S S S
|------------------------------------------|
|------------------------------------------|
|---4---4--4--------4-4----4-4----4--4---4-|
|------------------------------------------|
|------------------------------------------|
|------------------------------------------|


  E (022100@1) E (022100@1) +S      E (022100@1) S E.     S E (022100@1) E (022100@1)   E (022100@1) E (022100@1) +S      E (022100@1) S E.     S E (022100@1) E|----------------------------------------|------------------------------------------| (022100@1)|-----3---(3)b3.5-0---0------------------|-----3---(3)b3.5-0---0--------------------|
|-----------------------2------0h1-------|-----------------------2------0h1---------|
|------------------------------------2---|------------------------------------2-----|
|----------------------------------------|------------------------------------------|
|-0--------------------------------------|-0----------------------------------------|
|
| S S S S  e (022000@1)      S S S  S e (022000@1) S S S S   S S S S  e (022000@1)      S S S  S e (022000@1) S S S S
|----------------------------------------|------------------------------------------|
|----------------------------------------|------------------------------------------|
|---4---4--4--------4-4----4-4---4-4---4-|---4---4--4--------4-4----4-4---4-4---4---|
|----------------------------------------|------------------------------------------|
|----------------------------------------|------------------------------------------|
|----------------------------------------|------------------------------------------|


  E (022100@1) E (022100@1) +S      E (022100@1) S E (022100@1) S S +E    S S   E (022100@1) E (022100@1) +S      E (022100@1) S E (022100@1) S S +E    E|-----------------------------------------|-----------------------------------------| (022100@1)|-----3---(3)b3.5-0---0-----0-------------|-----3---(3)b3.5-0---0-----0-------------|
|-----------------------2-----------------|-----------------------2-------------0---|
|-----------------------------2-(2)---0h1-|-----------------------------2-(2)---0---|
|-2---------------------------------------|-2---------------------------------------|
|-----------------------------------------|-----------------------------------------|
|
| S S S S  e (022000@1)      S S S S e (022000@1)  S  S S S   S S S S  e (022000@1)      S S S S e (022000@1)  S  S S S
|-----------------------------------------|-----------------------------------------|
|-----------------------------------------|-----------------------------------------|
|---4---4--4--------4-4---4-4----4--4---4-|---4---4--4--------4-4---4-4----4--4---4-|
|-----------------------------------------|-----------------------------------------|
|-----------------------------------------|-----------------------------------------|
|-----------------------------------------|-----------------------------------------|


  E (022100@1) E (022100@1) +S      E (022100@1) S E.     S +E    E|--------------------------------------------| (022100@1)|-----3---(3)b3.5-0---0----------------------|
|-----------------------2--------------------|
|------------------------------4-(4)---2-----|
|-2------------------------------------------|
|--------------------------------------------|
|
| S S S S  e (022000@1)      S S S  S e (022000@1)  S  S S S
|--------------------------------------------|
|--------------------------------------------|
|---4---4--4--------4-4----4-4----4--4---4---|
|--------------------------------------------|
|--------------------------------------------|
|--------------------------------------------|


  E (022100@1) E (022100@1) +S      E (022100@1) S +E.     S +E    E (022100@1)   +E    E (022100@1) +S      E (022100@1) S E (022100@1) S S +S  S S S
|-------------------------------------------|-------------------------------------------|
|-----3---(3)b3.5-0---0-(0)-----------------|-------3---(3)b3.5-0---0-----0-------0-----|
|-------------------------------------------|-------------------------2-----------------|
|-------------------------------------------|-------------------------------2-(2)---0h1-|
|-------------------------------5-(5)---2---|-(2)---------------------------------------|
|-0-----------------------------------------|-------------------------------------------|
|
| S S S S  e (022000@1)      S S  S  S e (022000@1)  S  S S S    S  S S S  e (022000@1)      S S S S e (022000@1)  S  S S S
|-------------------------------------------|-------------------------------------------|
|-------------------------------------------|-------------------------------------------|
|---4---4--4--------4-4-----4-4----4--4---4-|-----4---4--4--------4-4---4-4----4--4---4-|
|-------------------------------------------|-------------------------------------------|
|-------------------------------------------|-------------------------------------------|
|-------------------------------------------|-------------------------------------------|


  E (022100@1) E (022100@1) +S      E (022100@1) S E (022100@1) S S +S  S S S
|--------------------------------------------||
|-----3---(3)b3.5-0---0-----0-------0-------o||
|-----------------------2--------------------||
|-----------------------------2-(2)---0h1----||
|-2-----------------------------------------o||
|--------------------------------------------||
|
| S S S S  e (022000@1)      S S S S e (022000@1)  S  S S S
|--------------------------------------------||
|-------------------------------------------o||
|---4---4--4--------4-4---4-4----4--4---4----||
|--------------------------------------------||
|-------------------------------------------o||
|--------------------------------------------||


 Interlude
  E (022100@1) E (022100@1) +S      E (022100@1) S E.     S +S  S S S   Q       +S  E (022100@1) S E (022100@1) S S +S  E (022100@1) S
|------------------------------------------|-------------------------------------|
|-----3---(3)b3.5-0---0--------0-(0)-0-----|-------------0---0-----2-------0-----|
|-----------------------2------------------|-------------------2-----------------|
|------------------------------------------|-------------------------2-(2)-------|
|-2------------------------------------5-5-|-2-------(2)-----------------------0-|
|------------------------------------------|-------------------------------------|
|
| S S S S  e (022000@1)      S S S  S e (022000@1)  S  S S S   S S S S  e (022000@1)  S S S S e (022000@1)  S  S S S
|------------------------------------------|-------------------------------------|
|------------------------------------------|-------------------------------------|
|---4---4--4--------4-4----4-4----4--4---4-|---4---4--4----4-4---4-4----4--4---4-|
|------------------------------------------|-------------------------------------|
|------------------------------------------|-------------------------------------|
|------------------------------------------|-------------------------------------|


  E (022100@1) E (022100@1) +S      E (022100@1) S E.     S +S  S S S
|--------------------------------------------|
|-----3---(3)b3.5-0---0----------------------|
|-----------------------2--------------------|
|------------------------------2-(2)-0-------|
|-2------------------------------------2-0---|
|--------------------------------------------|
|
| S S S S  e (022000@1)      S S S  S e (022000@1)  S  S S S
|--------------------------------------------|
|--------------------------------------------|
|---4---4--4--------4-4----4-4----4--4---4---|
|--------------------------------------------|
|--------------------------------------------|
|--------------------------------------------|


  E (022100@1) E (022100@1) +S      E (022100@1) S E.     S +S  S S S
|------------------------------------------|
|-----3---(3)b3.5-3---0--------0-(0)-0-----|
|-----------------------2------------------|
|------------------------------------------|
|-2------------------------------------2-2-|
|------------------------------------------|
|
| S S S S  e (022000@1)      S S S  S e (022000@1)  S  S S S
|------------------------------------------|
|------------------------------------------|
|---4---4--4--------4-4----4-4----4--4---4-|
|------------------------------------------|
|------------------------------------------|
|------------------------------------------|


  E (022100@1) E (022100@1) +S      E (022100@1) S E (022100@1) S S E (022100@1) E (022100@1)   E (022100@1) E (022100@1) +S      E.     E (022100@1) S S E (022100@1) E|---------------------------0-----------|----------------------------0-------------| (022100@1)|-----3---(3)b3.5-0---0-----------------|-----3---(3)b3.5-0------------------------|
|-----------------------2-----0h1-------|------------------------2-----0h1---------|
|-----------------------------------2---|------------------------------------2-----|
|---------------------------------------|------------------------------------------|
|-0-------------------------------------|-0----------------------------------------|
|
| S S S S  e (022000@1)      S S S S e (022000@1) S S S S   S S S S  e (022000@1)       S S S S e (022000@1) S S S S
|---------------------------------------|------------------------------------------|
|---------------------------------------|------------------------------------------|
|---4---4--4--------4-4---4-4---4-4---4-|---4---4--4---------4-4---4-4---4-4---4---|
|---------------------------------------|------------------------------------------|
|---------------------------------------|------------------------------------------|
|---------------------------------------|------------------------------------------|


  E (022100@1) E (022100@1) +S      E (022100@1) S E (022100@1) S S +S  S S S
|-----------------------------------------|
|-----3---(3)b3.5-0---0-----0-------0-----|
|-----------------------2-----------------|
|-----------------------------2-(2)---0h1-|
|-2---------------------------------------|
|-----------------------------------------|
|
| S S S S  e (022000@1)      S S S S e (022000@1)  S  S S S
|-----------------------------------------|
|-----------------------------------------|
|---4---4--4--------4-4---4-4----4--4---4-|
|-----------------------------------------|
|-----------------------------------------|
|-----------------------------------------|


  E (022100@1) E (022100@1) +S      E (022100@1) S E (022100@1) S S +S  S S S   E (022100@1) E (022100@1) +S  E.     E.     S +E    E|-----------------------------------------|-------------0---------------------------| (022100@1)|-----3---(3)b3.5-0---0-----0-------0-----|-----2---(2)--------2------0-(0)---------|
|-----------------------2-----------------|-----------------------------------2-----|
|-----------------------------2-(2)---0h1-|-----------------------------------------|
|-2---------------------------------------|-----------------------------------------|
|-----------------------------------------|-2---------------------------------------|
|
| S S S S  e (022000@1)      S S S S e (022000@1)  S  S S S   S S S S  e (022000@1)   S S S  S e (022000@1)  S  S S S
|-----------------------------------------|-----------------------------------------|
|-----------------------------------------|-----------------------------------------|
|---4---4--4--------4-4---4-4----4--4---4-|---4---4--4-----4-4----4-4----4--4---4---|
|-----------------------------------------|-----------------------------------------|
|-----------------------------------------|-----------------------------------------|
|-----------------------------------------|-----------------------------------------|


  a (x02210@1)name="chord_022100@1">E   E (022100@1) +S      E.     E.     S E (022100@1) E|-------------------------------------------| (022100@1)|-------3---(3)b3.5-0-----------------------|
|--------------------------2------0h1-------|
|---------------------------------------2---|
|-------------------------------------------|
|-2p0---------------------------------------|
|
|   S S S S  e (022000@1)       S S S  S e (022000@1) S S S S
|-------------------------------------------|
|-------------------------------------------|
|-----4---4--4---------4-4----4-4---4-4---4-|
|-------------------------------------------|
|-------------------------------------------|
|-------------------------------------------|


  E (022100@1) E (022100@1) +S      E (022100@1) S E (022100@1) S S +S  S S S   E (022100@1) E (022100@1) +S      E (022100@1) S S S S S E (022100@1) E|-----------------------------------------|----------------------------------------|| (022100@1)|-----3---(3)b3.5-0---0-----0-------0-----|-----3---(3)b3.5-0---0-0----------------||
|-----------------------2-----------------|-------------------------2--------------||
|-----------------------------2-(2)---0h1-|---------------------------4-2----------||
|-2---------------------------------------|-2-----------------------------5---2----||
|-----------------------------------------|----------------------------------------||
|
| S S S S  e (022000@1)      S S S S e (022000@1)  S  S S S   S S S S  e (022000@1)      S S S S e (022000@1) S S S S
|-----------------------------------------|----------------------------------------||
|-----------------------------------------|----------------------------------------||
|---4---4--4--------4-4---4-4----4--4---4-|---4---4--4--------4-4---4-4---4-4---4--||
|-----------------------------------------|----------------------------------------||
|-----------------------------------------|----------------------------------------||
|-----------------------------------------|----------------------------------------||


 Verse
  E (022100@1) E (022100@1) +S      E (022100@1) S E.     S +E    S S   E (022100@1) E (022100@1) +S      E (022100@1) S E.     S +E    S S
|------------------------------------------|------------------------------------------|
|-----3---(3)b3.5-0---0--------------------|-----3---(3)b3.5-0---0--------------------|
|-----------------------2------------------|-----------------------2------------------|
|------------------------------2-(2)---0h1-|------------------------------2-(2)---0h1-|
|-2----------------------------------------|-2----------------------------------------|
|------------------------------------------|------------------------------------------|
|
| S S S S  e (022000@1)      S S S  S e (022000@1)  S  S S S   S S S S  e (022000@1)      S S S  S e (022000@1)  S  S S S
|------------------------------------------|------------------------------------------|
|------------------------------------------|------------------------------------------|
|---4---4--4--------4-4----4-4----4--4---4-|---4---4--4--------4-4----4-4----4--4---4-|
|------------------------------------------|------------------------------------------|
|------------------------------------------|------------------------------------------|
|------------------------------------------|------------------------------------------|


  E (022100@1) E (022100@1) +S      E (022100@1) S E.     S +E    S S
|--------------------------------------------|
|-----3---(3)b3.5-0---0----------------------|
|-----------------------2--------------------|
|------------------------------2-(2)---0h1---|
|-2------------------------------------------|
|--------------------------------------------|
|
| S S S S  e (022000@1)      S S S  S e (022000@1)  S  S S S
|--------------------------------------------|
|--------------------------------------------|
|---4---4--4--------4-4----4-4----4--4---4---|
|--------------------------------------------|
|--------------------------------------------|
|--------------------------------------------|


  E (022100@1) E (022100@1) +S      E (022100@1) S E.     S +E    S S
|------------------------------------------|
|-----3---(3)b3.5-0---0--------------------|
|-----------------------2------------------|
|------------------------------2-(2)---0h1-|
|-2----------------------------------------|
|------------------------------------------|
|
| S S S S  e (022000@1)      S S S  S e (022000@1)  S  S S S
|------------------------------------------|
|------------------------------------------|
|---4---4--4--------4-4----4-4----4--4---4-|
|------------------------------------------|
|------------------------------------------|
|------------------------------------------|


  E (022100@1) E (022100@1) +S      E (022100@1) S E.     S E (022100@1) E (022100@1)   E (022100@1) E (022100@1) +S      E (022100@1) S E.     S E (022100@1) E|----------------------------------------|------------------------------------------| (022100@1)|-----3---(3)b3.5-0---0------------------|-----3---(3)b3.5-0---0--------------------|
|-----------------------2------0h1-------|-----------------------2------0h1---------|
|------------------------------------2---|------------------------------------2-----|
|----------------------------------------|------------------------------------------|
|-0--------------------------------------|-0----------------------------------------|
|
| S S S S  e (022000@1)      S S S  S e (022000@1) S S S S   S S S S  e (022000@1)      S S S  S e (022000@1) S S S S
|----------------------------------------|------------------------------------------|
|----------------------------------------|------------------------------------------|
|---4---4--4--------4-4----4-4---4-4---4-|---4---4--4--------4-4----4-4---4-4---4---|
|----------------------------------------|------------------------------------------|
|----------------------------------------|------------------------------------------|
|----------------------------------------|------------------------------------------|


  E (022100@1) E (022100@1) +S      E (022100@1) S E (022100@1) S S +E    S S   E (022100@1) E (022100@1) +S      E (022100@1) S E (022100@1) S S +E    E|-----------------------------------------|-----------------------------------------| (022100@1)|-----3---(3)b3.5-0---0-----0-------------|-----3---(3)b3.5-0---0-----0-------------|
|-----------------------2-----------------|-----------------------2-------------0---|
|-----------------------------2-(2)---0h1-|-----------------------------2-(2)---0---|
|-2---------------------------------------|-2---------------------------------------|
|-----------------------------------------|-----------------------------------------|
|
| S S S S  e (022000@1)      S S S S e (022000@1)  S  S S S   S S S S  e (022000@1)      S S S S e (022000@1)  S  S S S
|-----------------------------------------|-----------------------------------------|
|-----------------------------------------|-----------------------------------------|
|---4---4--4--------4-4---4-4----4--4---4-|---4---4--4--------4-4---4-4----4--4---4-|
|-----------------------------------------|-----------------------------------------|
|-----------------------------------------|-----------------------------------------|
|-----------------------------------------|-----------------------------------------|


  E (022100@1) E (022100@1) +S      E (022100@1) S E.     S +E    E|--------------------------------------------| (022100@1)|-----3---(3)b3.5-0---0----------------------|
|-----------------------2--------------------|
|------------------------------4-(4)---2-----|
|-2------------------------------------------|
|--------------------------------------------|
|
| S S S S  e (022000@1)      S S S  S e (022000@1)  S  S S S
|--------------------------------------------|
|--------------------------------------------|
|---4---4--4--------4-4----4-4----4--4---4---|
|--------------------------------------------|
|--------------------------------------------|
|--------------------------------------------|


  E (022100@1) E (022100@1) +S      E (022100@1) S S S S S +E    S S   E (022100@1) E (022100@1) +S      E (022100@1) S E (022100@1) S S +S  S S S
|-----------------------------------------|-----------------------------------------|
|-----3---(3)b3.5-0---0-------------------|-----3---(3)b3.5-0---0-----0-------0-----|
|-----------------------2-----------------|-----------------------2-----------------|
|-------------------------4-2-------------|-----------------------------2-(2)---0h1-|
|-----------------------------5-(5)---2-0-|-2---------------------------------------|
|-0---------------------------------------|-----------------------------------------|
|
| S S S S  e (022000@1)      S S S S e (022000@1)  S  S S S   S S S S  e (022000@1)      S S S S e (022000@1)  S  S S S
|-----------------------------------------|-----------------------------------------|
|-----------------------------------------|-----------------------------------------|
|---4---4--4--------4-4---4-4----4--4---4-|---4---4--4--------4-4---4-4----4--4---4-|
|-----------------------------------------|-----------------------------------------|
|-----------------------------------------|-----------------------------------------|
|-----------------------------------------|-----------------------------------------|


  E (022100@1) E (022100@1) +S      E.     S S E (022100@1)name="chord_022100@1">E       E|------------------------2---0----------------|| (022100@1)|-----3---(3)b3.5-0--------3---3b3.5---0------||
|---------------------------------------------||
|---------------------------------------------||
|-2-------------------------------------------||
|---------------------------------------------||
|
| S S S S  e (022000@1)       S S S S eS (022000@1)    S S S
|---------------------------------------------||
|---------------------------------------------||
|---4---4--4---------4-4---4-4-4-----4---4----||
|---------------------------------------------||
|---------------------------------------------||
|---------------------------------------------||


 Outro Begin Fade
  E (022100@1) E (022100@1) +S      E (022100@1) S E (022100@1) S S +S  S S S   E (022100@1) E (022100@1) +S      E (022100@1) S S S ES (022100@1)S E|-----------------------------------------|-------------------------------------| (022100@1)|-----3---(3)b3.5-0---0-----0-------0-----|-----3---(3)b3.5-0---0---0-----------|
|-----------------------2-----------------|-----------------------2-------------|
|-----------------------------2-(2)---0h1-|---------------------------2-0h1-----|
|-2---------------------------------------|-2-------------------------------2---|
|-----------------------------------------|-------------------------------------|
|
| S S S S  e (022000@1)      S S S S e (022000@1)  S  S S S   S S S S  e (022000@1)      S S S S eS (022000@1)S S S
|-----------------------------------------|-------------------------------------|
|-----------------------------------------|-------------------------------------|
|---4---4--4--------4-4---4-4----4--4---4-|---4---4--4--------4-4---4-4-4-4---4-|
|-----------------------------------------|-------------------------------------|
|-----------------------------------------|-------------------------------------|
|-----------------------------------------|-------------------------------------|


  E (022100@1) E (022100@1) +S      E (022100@1) S E (022100@1) S S +S  S a (x02210@1)name="chord_022100@1">E
|---------------------------------------------|
|-----3---(3)b3.5-0---0-----0-------0---------|
|-----0-----------------2---------------------|
|-----------------------------2-(2)---0h1-----|
|-2-------------------------------------------|
|---------------------------------------------|
|
| S S S S  e (022000@1)      S S S S e (022000@1)  S  S   S S
|---------------------------------------------|
|---------------------------------------------|
|---4---4--4--------4-4---4-4----4--4-----4---|
|---------------------------------------------|
|---------------------------------------------|
|---------------------------------------------|


  E (022100@1) E (022100@1) +S      E (022100@1) S E.     S +S  S E|------------------------------------------| (022100@1)|-----3---(3)b3.5-0---0--------0-(0)-0-----|
|-----------------------2------------------|
|------------------------------------------|
|-2----------------------------------------|
|--------------------------------------1---|
|
| S S S S  e (022000@1)      S S S  S e (022000@1)  S  S S S
|------------------------------------------|
|------------------------------------------|
|---4---4--4--------4-4----4-4----4--4---4-|
|------------------------------------------|
|------------------------------------------|
|------------------------------------------|


  E (022100@1) E (022100@1) +S      E (022100@1) S E (022100@1) S S S S E (022100@1)   E (022100@1) E (022100@1) +S      E.     E (022100@1) S S S S E|---------------------------0-----0-----|----------------------------0-----0-------| (022100@1)|-----3---(3)b3.5-0---0-----------------|-----3---(3)b3.5-0------------------------|
|-----------------------2-----0h1-------|------------------------2-----0h1---------|
|-----------------------------------2---|------------------------------------2-----|
|---------------------------------------|------------------------------------------|
|-0-------------------------------------|-0----------------------------------------|
|
| S S S S  e (022000@1)      S S S S e (022000@1) S S S S   S S S S  e (022000@1)       S S S S e (022000@1) S S S S
|---------------------------------------|------------------------------------------|
|---------------------------------------|------------------------------------------|
|---4---4--4--------4-4---4-4---4-4---4-|---4---4--4---------4-4---4-4---4-4---4---|
|---------------------------------------|------------------------------------------|
|---------------------------------------|------------------------------------------|
|---------------------------------------|------------------------------------------|


  E (022100@1) E (022100@1) +S      E (022100@1) S S S ES (022100@1)S S S   E (022100@1) E (022100@1) +S      E (022100@1) S E.     S +S  S S S
|-------------------------------------|------------------------------------------|
|-----3---(3)b3.5-0---0---0-----------|-----3---(3)b3.5-0---0--------------0-----|
|-----------------------2---2---------|-----------------------2------------------|
|-----------------------------2-0-----|------------------------------2-(2)---0h2-|
|-2-------------------------------2-0-|-2----------------------------------------|
|-------------------------------------|------------------------------------------|
|
| S S S S  e (022000@1)      S S S S eS (022000@1)S S S   S S S S  e (022000@1)      S S S  S e (022000@1)  S  S S S
|-------------------------------------|------------------------------------------|
|-------------------------------------|------------------------------------------|
|---4---4--4--------4-4---4-4-4-4---4-|---4---4--4--------4-4----4-4----4--4---4-|
|-------------------------------------|------------------------------------------|
|-------------------------------------|------------------------------------------|
|-------------------------------------|------------------------------------------|


  E (022100@1) E (022100@1) +S      E.     E (022100@1) S S +E    E|---------------------------------------------| (022100@1)|-----4---(4)b4.5-2------0--------------------|
|---------------------------------------------|
|------------------------------4-(4)----------|
|---------------------------------------------|
|-2--------------------------2---------2------|
|
| S S S S  e (022000@1)       S S S S e (022000@1)  S  S S S
|---------------------------------------------|
|---------------------------------------------|
|---4---4--4---------4-4---4-4----4--4---4----|
|---------------------------------------------|
|---------------------------------------------|
|---------------------------------------------|


  E (022100@1) E (022100@1) +S      E.     S S S S +E    S S   E (022100@1) E (022100@1) +S      E (022100@1) S E (022100@1) S S +E    S S
|------------------------------------------|-----------------------------------------|
|-----3---(3)b3.5-0------------------------|-----3---(3)b3.5-0---0-----0-------------|
|------------------------2-----------------|-----------------------2-----------------|
|-2------------------------4-2-------------|-----------------------------2-(2)---0h1-|
|------------------------------5-(5)---2-0-|-2---------------------------------------|
|------------------------------------------|-----------------------------------------|
|
| S S S S  e (022000@1)       S S S S e (022000@1)  S  S S S   S S S S  e (022000@1)      S S S S e (022000@1)  S  S S S
|------------------------------------------|-----------------------------------------|
|------------------------------------------|-----------------------------------------|
|---4---4--4---------4-4---4-4----4--4---4-|---4---4--4--------4-4---4-4----4--4---4-|
|------------------------------------------|-----------------------------------------|
|------------------------------------------|-----------------------------------------|
|------------------------------------------|-----------------------------------------|


  E (022100@1) E (022100@1) +S      E (022100@1) S E (022100@1) S S +E    S S
|-------------------------------------------*|
|-----3---(3)b3.5-0---0-----0---------------*|
|-----------------------2-------------------*|
|-----------------------------2-(2)---0h1---*|
|-2-----------------------------------------*|
|-------------------------------------------*|
|
| S S S S  e (022000@1)      S S S S e (022000@1)  S  S S S
|-------------------------------------------*|
|-------------------------------------------*|
|---4---4--4--------4-4---4-4----4--4---4---*|
|-------------------------------------------*|
|-------------------------------------------*|
|-------------------------------------------*|




--------------------------------------------------------------------------------


Duration Legend
---------------
W - whole; H - half; Q - quarter; E - 8th; S - 16th; T - 32nd; X - 64th; a - acciaccatura
+ - note tied to previous; . - note dotted; .. - note double dotted
Uncapitalized letters represent notes that are staccato (1/2 duration)
Irregular groupings are notated above the duration line
Duration letters will always appear directly above the note/fret number it represents the
duration for.  Duration letters with no fret number below them represent rests.  Multi-
bar rests are notated in the form Wxn, where n is the number of bars to rest for.  Low
melody durations appear below the staff

Tablature Legend
----------------
 h   - hammer-on
 p   - pull-off
 b (x24432@1) - bend
 pb  - pre-bend
 r   - bend release (if no number after the r, then release immediately)
 /  - slide into or out of (from/to "nowhere")
 s   - legato slide
 S   - shift slide
 - natural harmonic
[n]  - artificial harmonic
n(n) - tapped harmonic
 ~   - vibrato
 tr  - trill
 T   - tap
 TP  - trem. picking
 PM  - palm muting
n/  - tremolo bar dip; n = amount to dip
 n  - tremolo bar down
 n/  - tremolo bar up
/n  - tremolo bar inverted dip
 =   - hold bend; also acts as connecting device for hammers/pulls
  - volume swell (louder/softer)
 x   - on rhythm slash represents muted slash
 o   - on rhythm slash represents single note slash

Misc Legend
-----------
 |  - bar
||  - double bar
||o - repeat start
o|| - repeat end
*|  - double bar (ending)
 :  - bar (freetime)
 $  - Segno
 &  - Coda
Tempo markers -  = BPM(8/16=s8/s16), where s8 = swing 8ths, s16 = swing 16ths



Show more