• Song:

    May I Have A Talk With You

  • Artist:

    Stevie Ray Vaughan

  • Album:

    The Sky Is Crying

              -=[ NMKeith74@aol.com ]=-
            ?~?~? Accurate Notation ?~?~?

      ????  As Close To The Original Artist  ????

**Please take a moment and rate my sheet music** 
                  -=Thank You=-


The Playing Guide
_________________________________
                                 |
/ sl. (slide up)                 |
\ sl. (slide down)               | 
H, h (x2444x@1)(hammer-on)                | 
P, p  (pull-off)                 | 
B, b(bend) (x24432@1)? ? or 1 step        |
V~  (vibrato)                    | 
+  (harmonic)                    |
PM,  (Palm mute)                 |
_________________________________|

Artist: Stevie Ray Vaughn
Song: May I have a talk with you


Slow Blues (=48)
W/swing feel

Intro
|-5--5--5--5--5--5--5--5--5--5-----4---4-------|
|-5--5--5--5--5--5--5--5--5--5-----4---4-------|
|-5--5--5--5--5--5--5--5--5--5-----4---4-------|
|-4--4--4--4--4--4--4--4--4--4-----3---3-------|
|----------------------------------------------|
|-5--------------5--5-----5--------4---4-------|	

                      ?       1               1          1
|-3--3--3--3-------3-----3---6^b---6-3---3---------3-3-------3-----|
|-3--3--3--3-----3---6^b---3-----------3---3-----3-3-3-------3-----|
|-3--3--3--3---5-----------------------------5^b--------5^b--------|
|-2--2--2----------------------------------------------------------|
|------------------------------------------------------------------|
|-3--3--3----------------------------------------------------------|	

   P           1             V~~~  P    1     1            V~~~        
|-------------------3---3--6-3-----------------------------------|
|-3---------------3---3-----------6p3------------------x---------|
|-3p3---------5^b----------------------5^b----5^b--(5)-3---5-----|
|------5---5-----------------------------------------------------|
|----------------------------------------------------------------|
|------3---3-----------------------------------------------------|	

                          let ring...|
|---------3---3-------------------------------------|
|---------3---3---------------------------------4---|
|---------------------------5--5------5---------3---|
|-5---5---------------------4--4------4---------4---|
|-----------------3--4--5---5-----5---5-----3---3---|
|-3-------------------------------------------------|	

                                sl.       H        P
|-------------------------------17\------3h5--------|
|-3-----------------------------17\-----------------|
|-4------------------------------------3----------3p|
|-3-------------------------------------------------|
|-2-------------------------------------------------|
|---------------------------------------------------|	
   V~~~~~~~~~~~
|--3------------------------------------------------|
|---------------------------------------------------|
|-(0)-----------------------------------------------|
|---------------------------------------------------|
|---------------------------------------------------|
|---------------------------------------------------|	

   ?                V~~~   P       1V~~~~~~~
|--------3----3--6--3---------------------------3---|
|------3---3--------------6p3-----------------------|
|-5^b-----------------------------5^b---------------|
|---------------------------------------------------|
|---------------------------------------------------|
|---------------------------------------------------|	
   1    P            ?               V~~~     sl.    sl.
|--------------------------3---3--6--3-----3--15\-----3/5--|
|------------------------3---3----------------15\-----3/5--|
|-5^b-(5)p3---------5^b-------------------------------3/5--|
|-------------5--5-----------------------------------------|
|----------------------------------------------------------|
|-------------3--3----------------------------------3------|	

                                            sl.
|-------------------------------------------17\-----|
|-3-----------------------------------------17\-----|
|-3-------------------------------------------------|
|-2-------------------------------------------------|
|-3-------------------------------------------------|
|---------------------------------------------------|	

     V~~~~~
|----3----------------------------------------------|
|---------------------------------------------------|
|-3-------------------------------------------------|
|-2-------------------------------------------------|
|-3-------------------------------------------------|
|---------------------------------------------------|	

   ?            V~~~   1      ? 
|-----3---3--6--3-----6^b----6^b---------5-------|
|-------3------------------------------------3---|
|-5^b--------------------------------------------|
|------------------------------------------------|
|------------------------------------------------|
|------------------------------------------------|
	
     V~~~ ?            1      P              sl.
|-6--3-----------3---------------------3--3------------|
|-------------3-----6------------------3--3-------6----|
|---------5^b---------5^b----5p3------------------6----|
|---------------------------------5---------------5----|
|------------------------------------------------------|
|------------------------------------3-------3/6-----5-|
	
                                    sl.     sl.
|-5---------------------------------17\-----3/5-----|
|-5---------------------------------17\-------------|
|-5---------------------------------17\---3------3--|
|-4-------------------------------------------------|
|-5-------------------------------------------------|
|---------------------------------------------------|	

   V~~~~~~
|--3------------------------------------------------|
|---------------------------------------------------|
|---------------------------------------------------|
|---------------------------------------------------|
|---------------------------------------------------|
|---------------------------------------------------|	

   ?              V~~~  P    1   1  
|-------3---3--6--3----6----------------------------|
|-----3---3------------6p3--------------------------|
|-5^b-----------------------5^b--5^b------3---------|
|---------------------------------------------5-----|
|---------------------------------------------------|
|---------------------------------------------------|	


|----3-----3------------------5-------5-------------|
|----3-----3----------------------------------------|
|-------------------------5-------5-----------------|
|-------------------------4-------4-----------------|
|---------------3--4--5---5-------------------------|
|-3-------------------------------------------------|	

  sl.   ?                         V~~~~~
|-20\-------3----6--3-----3--6--|-3-----------------|
|-20\-----3---3--------3--------|-------------------|
|------5^b----------------------|-------------------|
|-------------------------------|-------------------|
|-------------------------------|-------------------|
|-------------------------------|-------------------|	

Repeat

Show more