-------------------------------------------------------------------------------
              You Brought a Knife to a Gunfight - Stone Gods
-------------------------------------------------------------------------------

Tabbed by: Sam M├ęzec
Email: smezec@hotmail.com

Tuning:EADGBe


Intro

e|----------------|-----------------|-----------------|
B|----------------|-----------------|-----------------|
G|----------------|-----------------|-----------------|
D|------5---------|-------5---------|-------5---------|
A|-7-7--3--5---5--|--7-7--3--5---5--|--7-7--3--5---5--|
E|-5-5-----3-0-3--|--5-5-----3-0-3--|--5-5-----3-0-3--|


e|--------------5-|----------------|-------|------------------|
B|-7b-5-7b-5------|--/10-10--8--7--|---5~--|--7b-5-7b-5-7b----|
G|-7b-5-7b-5-7b---|--/11-11--9--7--|---5~--|--7b-5-7b-5-7b----|
D|----------------|----------------|-------|------------------|
A|----------------|----------------|-------|------------------|
E|----------------|----------------|-------|------------------|



Verse

I was hitchin' to Morroco...
e|---------|---------|---------|------------|---------------|---------------|
B|---------|---------|---------|------------|---------------|---------------|
G|---------|---------|---------|------------|---------------|---------------|
D|-------5-|-------5-|-------5-|------------|------5--------|------5--------| x2
A|-7---7-3-|-5---5-3-|-7---7-3-|-5--5-5-5-5-|-7-7--3--5---5-|-7-7--3--5---5-|
E|-5---5---|-3---3---|-5---5---|-3--3-3-3-3-|-5-5-----3-0-3-|-5-5-----3-0-3-|



I was on my feet in a heart beat...
e|-------|-------|-------|-------------------|
B|-------|-------|-------|-------------------|
G|-------|-------|---7---|-------------------|
D|---7---|---10--|---7---|-10-10-10-10-10----|
A|---7---|---10--|---5---|-8--8--8--8--8-----|
E|---5---|---8---|-------|----------------/--|


Chorus
Stand up, load up...
e|------------------|-------------2---|
B|------------------|-------------3---|
G|-2--2---2--2---2--|--2---2---0--2---|
D|-2--2---2--2---2--|--2---2---0--0---| x4
A|-0--0-3-0--0-3-0--|--0-3-0---2------|
E|------------------|----------3------|

e|--0-------------|----------------|-----------------|
B|--0-------------|----------------|-----------------|
G|--1-------------|----------------|-----------------|
D|--2-------------|------5---------|-------5---------|
A|--2---2--4--5---|-7-7--3--5---5--|--7-7--3--5---5--|
E|--0---0--2--3---|-5-5-----3-0-3--|--5-5-----3-0-3--|




| /  slide up
| \  slide down
| h  hammer-on
| p  pull-off
| ~  vibrato
| +  harmonic
| x  Mute note
===============================================================================
Show more