The Stray Cats "Baby Blue Eyes"
Video of me playing this song on my upright bass:
http://www.youtube.com/watch?v=m05qtT8fbHU

Intro
  E               A       E                       B       E
|-------------------------------------------------------------------------|
|-2-------2-----------2-4-2-0---0-2-0-----2-------4-----4-2-0---0-2-0-----|
|-----2-4---4-2---0-4---------4-------4-2-----2-2---4-2-------4-------4-2-|
|---4-----------4---------------------------4-----------------------------|

Verse 1
  E               A       E                       F#      B
|-----------------------------------------------------------------|
|-2-------2-----------2-4-2-0-----2-------2-------------------0-1-|
|-----2-4---4-2---0-4---------4-2-----2-4---4-2-------0-1-2-4-----|
|---4-----------4-------------------4-----------4-2-4-------------|

  E               A       E                       F#  B   E
|-------------------------------------------------------------------------|
|---------2-0---------2-4-2-0---0-2-0-------------------4-2-0-------------|
|---5-4-5-----4-2-0-4---------4-------4-2-4-2-4-----4-2-------4-2-----2-4-|
|-0---------------------------------------------2-2---------------0-4-----|

Solo 1
  E       A       E                       F#      B       E
|-------------------------------------------------------------3-6-|
|-------------2-4-2-2-2-2-2-0---0-------------------------2-------|
|---4-2---0-4-----------------4-----5-4-3---6-4-3-2-3-4-5---0-----|
|-0-----4-------------------------0-------2-----------------------|

  E       A       E                       F#  B   E
|-5-6-3-1-2-0-----------------------------------------------------|
|-------------4-3-2-0---0-2---------2-6-5-4-----4-2-0-------------|
|---------------------4-----0-2-3-3---------4-2-------4-2-----2-2-|
|---------------------------------------------------------0-3-----|

Verse 2
  E               A       E                       F#      B
|-----------------------------------------------------------------|
|-2-------2-----------2-4-2-0---0-2-0---0-2-0-----------------0-1-|
|-----2-4---4-2---0-4---------4-------4-------4-2-----0-1-2-4-----|
|---4-----------4---------------------------------2-4-------------|

  E               A       E                       F#  B   E
|-----------1-4-1-2-0-------------------------1-0-------------------------|
|-2-------2-----------4-3-2-0---0-2-0-----0-2-----4-----4-2-------2-------|
|-----2-----------------------4-------2-4-----------4-2-------2-4-----2-4-|
|---4---4---------------------------------------------------4-------4-----|

Solo 2
  E       A       E                       F#      B       E
|-----------------------------------------------------------------|
|-2-----------2-----------2---------------------------------------|
|---4-2---0-4---4-----2-4---4-2-------2-4-----0-1-2-0---------2-4-|
|-------4---------0-4-----------4-0-4-----2-4---------4-2-0-4-----|

  E       A       E                       F#  B   E
|-------------------------------------1-0-------------------------|
|-2-----------2-4-2-0-----2-------2-2-----4-----4-2-0---0-2-0-----|
|---4-2---0-4---------4-2-----2-4-----------4-2-------4-------4-2-|
|-------4-------------------4-------------------------------------|

Verse 3
  E               A       E                       F#      B
|-----------------------------------------------------------------|
|---------2-----------2---2-------2-------2-------4-2-------------|
|-----2-4---4-2---0-4---4-----2-4---4-2-------2-4-----4-3-2-4-5-6-|
|-0-4-----------4-----------4-----------4---4---------------------|

  E               A       E                       F#  B   E
|-------6-7-6-------6-7-8-9-7-6---------------1-0-------------------------|
|---6-9-------9-6-7-------------9-----------2-----4-----4-2-0-------------|
|-7-------------------------------7-5-4-2-4---------4-2-------4-2-----2-4-|
|-----------------------------------------------------------------0-4-----|

Solo 3
  E       A       E                       F#      B       E
|-----------------------------------------------------------------|
|-2-----------2-4-2-0---0-2-0---0-2-------------------0-1-2-0-----|
|---4-2---0-4---------4-------4-------2-4-----0-1-2-4---------4-2-|
|-------4---------------------------4-----2-4---------------------|

  E       A       E*                      F#  B   E
|-------------------------------------1-0-------------------------|
|-2-0---------2-4-2-2-----2-------0-2-----4-----4-2---------------|
|-----4-2-0-4---------4-2-----2-4-----------4-2-----4-2-------2-4-|
|---------------------------4---------------------------4-0-4-----|

Verse 4
  E               A       E                       F#      B
|-----------------------------------------------------------------|
|---------2-----------2-4-2-0---0-2-0-------------4-2-------------|
|-----2-4---4-2---0-4---------4-------4-2-----2-4-----4-3-2-------|
|-0-4-----------4-------------------------0-4---------------4-2-1-|

  E               A       E                       F#  B   E
|---------------------------------------------1-0--------------------------|
|---------2-----------2-4-2-0-----2-------0-2-----4-----4-2----------------|
|-----2-4---4-2---0-4---------4-2-----2-4-----------4-2-----4-2------------|
|-0-4-----------4-------------------4---------------------------4-2-1-0--0-|
Show more