• Song:

    Superstars

  • Artist:

    Styx

  • Album:

    Greatest Hits, Part 2

standard tuning

~ = let ring

:00
G|-----------------------------------------------------------------------|
D|----------------555-------------------------------------777------------|
A|----8--7--5--3----------8--7--5--3----------8--7--5--3-----------------|
E|-8-------------------8--------------333--8-------------------5--1--3-3-|

:14 x5
G|----------------------------------------------------|
D|------10-------10-9-------------10-------10-9-------|
A|--------------------12-10---------------------12-10-|
E|-8--8-----8--8-------------8--8-----8--8------------|

:42
G|-------------------------------------------------------------|
D|-------------------------10--------10-9----------10----------|
A|-8--7--5--3-----------------------------12----------------10-|
E|-------------8-7-5--8--8-----88--8----------8--8-----8--8----|

:53 
G|----------------------------------------------------------------------------------|
D|------10-------10-9----------10----------------10-------10-9----------10----------|
A|--------------------12----------------10---------------------12----------------10-|
E|-8--8-----8--8----------8--8-----8--8-----8--8-----8--8----------8--8-----8--8----|

1:07
G|------------------------------------------------------|
D|------10-------10-9----------10----------7--------55~-|
A|--------------------12----------------10----8--7------|
E|-8--8-----8--8----------8--8-----8--8-----------------|

1:17 x3
G|----------------------------------------------|
D|------10-------10-9----------10-------10-9----|
A|--------------------12---------------------12-|
E|-8--8-----8--8----------8--8-----8--8---------|

1:39
G|------------------------------------------------------|
D|------10-------10-9-----------------------------------|
A|--------------------12--8--7--5--3---------10~----10~-|
E|-8--8-----8--8----------------------8-7-5-------------|

1:53
G|-----------------------------------------------------------------------|
D|----------------555-------------------------------------777------------|
A|----8--7--5--3----------8--7--5--3----------8--7--5--3-----------------|
E|-8-------------------8--------------333--8-------------------5--1--3-3-|

2:08 x3
G|----------------------------------------------|
D|------10-------10-9----------10-------10-9----|
A|--------------------12---------------------12-|
E|-8--8-----8--8----------8--8-----8--8---------|

2:29
G|------------------------------------------------------------------------------------|
D|------10-------10-9-----------------------------------------------------------------|
A|--------------------12--11-11-11-11-11-11-11-11-11-11-11-11-11-11-11-11-11-11-11-11-|
E|-8--8-----8--8----------------------------------------------------------------------|

2:36 keep repeating
G|-----|
D|-----|
A|-3-2-|
E|-----|

3:05 repeat until end
G|-------------------------------------------------|
D|------10-------10-9----------10------------------|
A|--------------------12-----------11--11-13-11-13-|
E|-8--8-----8--8----------8--8---------------------|
Show more