• Song:

    The Next Life

  • Artist:

    Suede

  • Album:

    Suede/Dog Man Star

Verse (D, Bm, A#maj7, C6add9):
e|---2-3---2-3---2-3---2-3---2-3---2-3---2-3---2-3-----5-----5-----5-----5-|
B|-3-----3-----3-----3-----3-----3-----3-----3-------6-----6-----6-----6---|
G|-------------------------------------------------7-----7-----7-----7-----|
D|-0-----0-----0-----0-----------------------------------------------------|
A|-------------------------2-----2-----2-----2-----------------------------|
E|-------------------------------------------------6-----6-----6-----6-----|

e|-------5---------------------|
B|-----8---8-6---5---5---8-6-5-|
G|---7-------------5---5-------|
D|-----------------------------|
A|-----------------------------|
E|-8-----------8---------------|

Chorus (G, F, C, D):
e|-----------------------------------------------------------------|
B|---0---0---3-1-0---0---0---3-1-0---0---0---3-1-0---0---0---3-1-0-|
G|-----0---0-----------0---0-----------0---0-----------0---0-------|
D|-----------------------------------------------------------------|
A|-----------------------------------------------------------------|
E|-3---------------3---------------1---------------1---------------|

e|-3---------5---------7---------8-----0-0-0-0-0-0-2-2-2-2-2-2-|
B|---3---------3---------5---------5---1-1-1-1-1-0-3-3-3-3-3-3-|
G|-----3---3-----3---3-----5---5-----5-0-0-0-0-0-0-2-2-2-2-2-2-|
D|---------------------------5---------------------------------|
A|-3-----3---------3-------------------------------------------|
E|-------------------------------------------------------------|


Bridge (G, Em7, C, D):
e|-3-3-3-3-3-3-3-3-3-3-3-3-0-0-0-0-0-0-0-0-0-0-0-3---------5------7-------5-|
B|-0-0-0-0-0-0-0-0-0-0-0-0-0-0-0-0-0-0-0-0-0-0-0---3---------3------5-------|
G|-0-0-0-0-0-0-0-0-0-0-0-0-0-0-0-0-0-0-0-0-0-0-0-----3---3-----3------5-----|
D|-0-0-0-0-0-0-0-0-0-0-0-0-0-0-0-0-0-0-0-0-0-0-0-----------------3------5---|
A|-2-2-2-2-2-2-2-2-2-2-2-2-2-2-2-2-2-2-2-2-2-2-2-3-----3--------------------|
E|-3-3-3-3-3-3-3-3-3-3-3-3-0-0-0-0-0-0-0-0-0-0-0----------------------------|

e|-0-0-0-0-0-0-2-2-2-2-2-0-0-0-0-0-0-2-2-2-2-2-2-2-2-2-2-2-2-|
B|-1-1-1-1-1-0-3-3-3-3-3-1-1-1-1-1-0-3-3-3-3-3-3-3-3-3-3-3-3-|
G|-0-0-0-0-0-0-2-2-2-2-2-0-0-0-0-0-0-2-2-2-2-2-2-2-2-2-2-2-2-|
D|-----------------------------------------------------------|
A|-----------------------------------------------------------|
E|-----------------------------------------------------------|

Outro (A, F#m, Fmaj7, G, A):
e|-----------------------------------------------------0-----0-----0-----0-|
B|---2-3---2-3---2-3---2-3---2-3---2-3---2-3---2-3---1-----1-----1-----1---|
G|-2-----2-----2-----2-----2-----2-----2-----2-----2-----2-----2-----2-----|
D|-------------------------------------------------3-----3-----3-----3-----|
A|-0-----0-----0-----0-----------------------------------------------------|
E|-------------------------2-----2-----2-----2-----------------------------|

(slower)
e|-----------0---------------------------------17--|
B|--------3-----3--1-----0-----0-----3--1--0---17--|
G|-----0--------------------0-----0------------18--|
D|-------------------------------------------------|
A|---------------------------------------------0---|
E|--3-----------------3----------------------------|

*Note*: alt. position to finish the verse
e|-----------------3--------|
B|-----5-----5--------6--5--|
G|--------5-----5-----------|
D|--------------------------|
A|--3-----------------------|
E|--------------------------|
Show more