sponsored links
Tuning - Standard EADGBE


Key
==========
x - mute
pm - palm mute
==========


Intro
===
---------------------------------------------------------------------
---------2---------------7-----------------5------------------------
------2----2----------7----7-------------5----5-------------7----(b9)--
---2---------2------7----------7------5---------5--------7------(b9)---
-0-------------0--5---------------5-3--------------3---5-------7-----
---------------------------------------------------------------------


Chorus
=====
-----------------------------------------------------------------
-----------------------------------------------------------------
--2-2-2-2-2-2----7-7-7-7-7-7------------------12-12-12-12-12-12--
--2-2-2-2-2-2----7-7-7-7-7-7---2-2-2-2-2-2----12-12-12-12-12-12--
--0-0-0-0-0-0----5-5-5-5-5-5---2-2-2-2-2-2----10-10-10-10-10-10--
-------------------------------0-0-0-0-0-0-----------------------


Bridge
=====
-----------------------------------------------------
-----------------------------------------------------
-----------------------------------------------------
---2-x-x-2---2-x-x-2---2-x-x-2----3-3-3--5-5-5-------
---2-x-x-2---2-x-x-2---2-x-x-2----3-3-3--5-5-5-------
---0-x-x-0---0-x-x-0---0-x-x-0----1-1-1--3-3-3-------

Pm---------------------------------------------------------------]
-----------------------------------------------------------------
-----------------------------------------------------------------
-----------------------------------------------------------------
-2-2-2-2-2-2-2-2---7-7-7-7--3-3-3-3---10-10-10-10-10-10-10-10----
-2-2-2-2-2-2-2-2---7-7-7-7--3-3-3-3---10-10-10-10-10-10-10-10----
-0-0-0-0-0-0-0-0---5-5-5-5--1-1-1-1----8---8---8--8---8--8--8----

Pm------------------------------------------------------------------]
---------------------------------------------------------------------
---------------------------------------------------------------------
---------------------------------------------------------------------
-(b9)(b9)(b9)(b9)-3-3-3-3--2-2-2-2-2-2-2-2--7-7-7-7--3-3-3-3--10-10-10-10-10-
-(b9)(b9)(b9)(b9)-3-3-3-3--2-2-2-2-2-2-2-2--7-7-7-7--3-3-3-3--10-10-10-10-10-
-7-7-7-7--1-1-1-1--0-0-0-0-0-0-0-0--5-5-5-5--1-1-1-1---8---8---8---8-

------------------------
------------------------
-10-10-10-10---(b9)-------
-10-10-10-10---(b9)-------
--8--8--8--8---7--------
------------------------
Show more
sponsored links
sponsored links