• Song:

    Gangnam Style

  • Artist:

    Sungha Jung

Gangnam Style
Sungha Jung
Standard Tuning
Capo.2

Intro:
e|-1s3-3-x-3-3-3-3s5-|-1s3-3-x-3-3-2-1---|  |-1s3-3-x-3-3-3-3s5-|
B|-1s3-3-x-3-3-3-3s5-|-1s3-3-x-3-3-2-1---|  |-1s3-3-x-3-3-3-3s5-|
G|-------x-----------|-------x-----------|3x|-------x-----------|
D|-------x-----------|-------x-----------|  |-------x-----------|
A|-------x-----------|-------x-----------|  |-------x-----------|
E|-1s3---x---x---x---|-1s3---x---x---x---|  |-1s3---x---x---x---|

e|----------|
B|-1-1-1--3-|
G|-2-2-2--4-|
D|-3-3-3--5-|
A|-3-3-3--5-|
E|-x-x-x--x-|

Goodluck :)
Show more