• Song:

    Goodbye Blue Sky

  • Artist:

    System of a down

  • Album:

    12th Annual Kroq Almost...

-=Goodbye Blue Sky=-
====================
This song's tuning is drop D; then all strings down one whole step
(C-G-C-F-A-D)


Artist: System of a down (Pink Floyd Cover)
Release: Live at Lowlands
Transcribed by: Benjamin Marschner
Email: Leerebirne@web.de
HP: www.systemofadowntabs.de.vu


A
1:----------------|----------------|----------------|----------------|
2:----------------|----------------|----------------|----------------|
3:-------0--------|-------0--------|-------0--------|-------0--------|
4:---4------4---4-|---4------4---4-|---4------4---4-|---4------4-----|
5:-5---5------5---|-5---5------5---|-5---5------5---|-5---5------5-0-|
6:----------------|----------------|----------------|----------------|


B
1:---------|--------|--------|--------|--------|--------|--------|--------|
2:---------|--------|--------|--------|--------|--------|--------|--------|
3:-----0---|----0---|----0---|----0---|----0---|----0---|----0---|----0---|
4:---4---4-|--4---4-|--4---4-|--4---4-|--4---4-|--4---4-|--4---4-|--4-----|
5:-2-------|2-------|2-------|2-------|2-------|2-------|2-------|2-----0-|
6:---------|--------|--------|--------|--------|--------|--------|--------|


C
1:---------|--------|--------|--------|
2:---------|--------|--------|--------|
3:-----0---|----0---|----0---|----0---|
4:---4---4-|--4---4-|--4---4-|--4-----|
5:-5-------|5-------|5-------|5-----0-|
6:---------|--------|--------|--------|


D
1:---------|--------|--------|--------|
2:---------|--------|--------|--------|
3:-----0---|----0---|----0---|----0---|
4:---4---4-|--4---4-|--4---4-|--4-----|
5:-2-------|2-------|2-------|2-----0-|
6:---------|--------|--------|--------|


E
1:-----------------------------------|--------------------------------|
2:-----------------------------------|--------------------------------|
3:-----5---5-------4-4---------------|--5---5-------4-4-4-------------|
4:-------------2-------2---2---2---2-|----------2-----------2---2---2-|
5:-0-----0---0---0-------0---0---0---|0---0---0---0-------0---0---0---|
6:---0-------------------------------|--------------------------------|

1:--------------------------------|
2:--------------------------------|
3:--5---5-------4-4-----4---5---6-|
4:----------2-------2-------------|
5:0---0---0---0-------0---0---0---|
6:--------------------------------|


F
1:----------------|----------------|----------------|----------------|
2:----------------|----------------|----------------|----------------|
3:-------0--------|-------0--------|-------0--------|-------0--------|
4:---4------4---4-|---4------4---4-|---4------4---4-|---4------4---4-|
5:-5---5------5---|-5---5------5---|-5---5------5---|-5---5------5---|
6:----------------|----------------|----------------|----------------|


G
1:---------|--------|--------|--------|--------|--------|--------|--------|
2:---------|--------|--------|--------|--------|--------|--------|--------|
3:-----0---|----0---|----0---|----0---|----0---|----0---|----0---|----0---|
4:---4---4-|--4---4-|--4---4-|--4---4-|--4---4-|--4---4-|--4---4-|--4-----|
5:-5-------|5-------|5-------|5-------|5-------|5-------|5-------|5-----0-|
6:---------|--------|--------|--------|--------|--------|--------|--------|


H
1:----|
2:----|
3:----|
4:----|
5:----|
6:-0--|


ORDER:
=====

A
B
C
D
C
D
E
F
C
A
G
A
H
Show more