• Song:

    Islands

  • Artist:

    The Band

-------
Islands
-------
The Band
Bass Tabs
Bass played by Rick Danko
All songs by Robbie Robertson except where noted

Original track Listing

1. Right as Rain
2. Street Walker (Rick Danko, Robertson)
3. Let the Night Fall
4. Ain't That a Lot of Love (Deanie Parker, Homer Banks)
5. Christmas Must Be Tonight

6. Islands (Danko, Garth Hudson, Robertson)
7. The Saga of Pepote Rouge
8. Georgia on My Mind (Hoagy Carmichael, Stuart Gorrell)
9. Knockin' Lost John
10. Livin' In a Dream

Bonus Tracks from 2001 Re-release

11. Twilight (Single Version)
10. Georgia on My Mind (Alternate Version)


-------------
Right as Rain
-------------

112BPM, 4/4

Intro

[two beat drum intro]

|------19~-----|---------|------19~-----|------------|
|-17~-------x--|---------|-17~-------x--|------------|
|--------------|---------|--------------|-----10--x--|
|--------------|---------|--------------|------------|

Verse

|------------|--------------|-------------|-------------|
|------------|--------------|-------------|-------2-5---|
|------------|-------2-3--4-|-5---5-5---5-|-5---5-------|
|-3---3-3----|-3---3--------|-------------|-------------|

|-------------|--------------|--------------|-------------|
|-------------|--------------|--------------|-------------|
|-3---3-3---3-|-2---2-2-2--2-|-------2-3-4--|-5---5-5-5---|
|-------------|--------------|-5---5--------|-------------|

|------------|--------------|-------------|-------------|
|------------|--------------|-------------|-------2-5---|
|------------|-------2-3--4-|-5---5-5---5-|-5---5-------|
|-3---3-3----|-3---3--------|-------------|-------------|

|-------------|--------------|--------------|--------------|
|-------------|--------------|--------------|--------------|
|-3---3-3---3-|-2---2-2-2--2-|----2--3-3-4--|-5---5-5-5--5-|
|-------------|--------------|-5------------|--------------|

|-------------|------------|-------------|-------------|
|-2---2-2---2-|------------|-------------|-5-----------|
|-------------|------------|-5---5-5---5-|----------2--|
|-------------|-5---5-5----|-------------|----3--5-----|

|--------------|---------------|--------------|------------|
|--------------|-3-3----2-2-2--|--------------|------------|
|-3---3-3-3--3-|------2--------|-----2--3--4--|-5---5-5----|
|--------------|---------------|-5-5----------|------------|

Chorus

|--------------|-------------|-------------|-------------|
|-/5-------5---|-4-------4---|-2---------2-|-5-----------|
|------5-5-----|-----5-5-----|-----2--5----|----5--2-----|
|--------------|-------------|-------------|----------3--|

|--------------|--------------|-----------|-------------|
|--------------|--------------|-----------|-5-----------|
|-3---3-3-3--3-|-2---2-2-2--2-|----5------|----------2--|
|--------------|--------------|-5---------|-----3--5----|

|-------------|--------------|
|-------------|--------------|
|-3---2--2-1--|--------------|
|-------------|-5--0--0h1h2--|

|--------19-x----|-----19--19--|----19~------|---------|
|-------------17-|-------------|---------17~-|---------|
|-----x----------|-------------|-------------|---------|
|-3--------------|-------------|-------------|---------|

Verse

|------------|--------------|-------------|-------------|
|------------|--------------|-------------|-------2-5---|
|------------|-------2-3--4-|-5---5-5---5-|-5---5-------|
|-3---3-3----|-3---3--------|-------------|-------------|

|--------------|--------------|---------------|--------------|
|--------------|--------------|---------------|--------------|
|-3---3-3-3--3-|-2---2-2-2--2-|-----2--3-3-4--|-5---5-5-5--5-|
|--------------|--------------|-5-5-----------|--------------|

|-------------|--------------|-------------|-------------|
|-------------|--------------|-------------|-------2-5---|
|-------------|-------2-3--4-|-5---5-5---5-|-5---5-------|
|-3---3-3---3-|-3---3--------|-------------|-------------|

|--------------|--------------|---------------|--------------|
|--------------|--------------|---------------|--------------|
|-3---3-3-3--3-|-2---2-2-2--2-|-----2--3-3-4--|-5---5-5-5--5-|
|--------------|--------------|-5-5-----------|--------------|

|--------------|-------------|--------------|---------------|
|-2-2---2-2--5-|-------------|------------5-|---------------|
|--------------|-------------|-5-5--5-5-----|------------2--|
|--------------|-5-5--5-5----|--------------|-3-3-3--5-5----|

|--------------|--------------|--------------|--------------|
|--------------|-3-3--2--2--5-|--------------|--------------|
|-3---3-3-3-3--|--------------|----2--3-3-4--|-5---5-5-5--5-|
|--------------|--------------|-5------------|--------------|

Chorus

|--------------|-------------|--------------|-------------|
|-/5------/5---|-4------/4---|-2----------2-|-5-----------|
|------5-------|-----5-------|-----/2--5----|----5--2-----|
|--------------|-------------|--------------|----------3--|

|--------------|--------------|-------------|--------------|
|--------------|--------------|-------------|--------------|
|-3---3-3-3--3-|-2---2-2-2--2-|----/5----5--|---------2--2-|
|--------------|--------------|-5-----------|-3---3-5------|

|-------------|--------------|
|-------------|--------------|
|-3---2--2-1--|--------------|
|-------------|-5--0--0h1h2--|

|-----19~------|---------|------19~------|---x-------|
|----------17~-|---------|-----------17~-|------x----|
|--------------|---------|-10------------|-----------|
|-3------------|---------|---------------|-----------|

Break

|------------|---------------|------------|----------|
|------------|---------------|---------3--|----------|
|-5-------7--|--/7--5--------|-3---3------|--------3-|
|-----7------|--------7-5-7--|------------|----------|

|---------------|
|-3-------------|
|---3-----------|
|-----5--5-3-0--|

Chorus

|--------------|-------------|--------------|-------------|
|-/5-------5---|-4------/4---|-2----------2-|-5-----------|
|------5-------|-----5-------|-----/2--5----|----5--2-----|
|--------------|-------------|--------------|----------3--|

|--------------|--------------|-----------|--------------|
|--------------|--------------|-----------|--------------|
|-3---3-3-3--3-|-2---2-2-2--2-|----5------|---------2--2-|
|--------------|--------------|-5---------|-3---3-5------|

|-------------|--------------|
|-------------|--------------|
|-3---2--2-1--|--------------|
|-------------|-5--0--0h1h2--|

|----------|-----------|----19~------|---------|
|----------|--17-------|---------17~-|---------|
|----------|-----------|-------------|---------|
|-3--------|-----------|-------------|---------|

Ending

|------------|--------------|--------------|--------------|
|------------|--------------|--------------|-3---3-3-3----|
|-5-------7--|--7--5--------|-3---3-3-3--3-|------------5-|
|-----7------|-------7-5-7--|--------------|--------------|

|-----------|---------*|
|-/5~-------|---------*|
|-----------|---------*|
|-----------|---------*|


-------------
Street Walker
-------------

104BPM, 4/4

A lot of the notes have slight bends on them in this song. I've marked 
the most obvious ones with a 'b'.

Intro

|-----------------|----------------|----------------|---------------|
|-----------------|----------------|----------------|---------------|
|-7-7-7-7-7-7-7-7-|-7-7-7-7------4-|-7-7-7-7-7-7--7-|-7-77-7------4-|
|-----------------|---------x5-7---|----------------|---------5-7---|

Verse

|-------------|-----------|-------------|-------------|
|-------------|-----------|-------------|-------------|
|-7b--------7-|-----------|-------------|-------------|
|-------0-----|-0------0--|-2---2-2---2-|-2---2-2---4-|

|------------|-------------|--------------|------------|
|------------|-------------|------------6-|-9-99-9-----|
|------------|-------------|-----x-6-9----|------------|
|-5---5-5----|-5---5-5--5--|-7------------|------------|

|------------|-------------|--------------|--------------|
|------------|-------------|--------------|--------------|
|-----7------|-7b----------|------------4-|--------------|
|-0-----0----|------0-0----|-2---2-2--2---|-2---2-2-2--4-|

|------------|-------------|---------------|-------------|
|------------|-------------|---------------|-------------|
|------------|-------------|-7-7--4-7-7--4-|-7-7-7-7-----|
|-5---5-5----|-5---5-5--5--|---------------|-------------|

|---------------|-------------|---------------|---------------|
|---------------|-------------|---------------|---------------|
|-7-7--4-7-7--4-|-7-x-7-7-----|-7-7--4-7-7--4-|-7-77-7----7-6-|
|---------------|-------------|---------------|---------7-----|

Bridge

|-----------|----------|-----------|-----------|
|-----------|----------|-----------|-----------|
|-4----4----|----------|-4----4----|-----------|
|-----------|-5--------|-----------|-5---5-----|

|------------|------------|------------|--------------|
|------------|------------|------------|--------------|
|-2----2-2---|-2---2-2----|-2----2-2---|-2-4b--2----4-|
|------------|------------|------------|--------------|

|---------------|------------|----------------|---------------|
|---------------|------------|----------------|---------------|
|-7-7--7-7-7--7-|-7-77-7-----|-7-7-7-7-7-7--7-|-7-77-7------4-|
|---------------|------------|----------------|---------5-7---|

Verse

|-------------|-------------|--------------|--------------|
|-------------|-------------|--------------|--------------|
|-7b--------7-|------7b-----|--------------|--------------|
|-------0-----|-0--0--------|-2---2-2-2--0-|-2-2--2---2-4-|

|--------------|--------------|--------------|----------------|
|--------------|--------------|------------6-|-9-9-9-9--------|
|--------------|--------------|--------6-9---|--------------6-|
|-5b----5b---5-|-5b--5-5b-----|-7----7-------|----------7-9---|

|-------------|----------------|-------------|-------------|
|-------------|----------------|-------------|-------------|
|-7b----7b----|-7b---7b--0-2-4-|-------------|-------------|
|-------------|----------------|-2---2--2--0-|-2---2--2--4-|

|--------------|----------------|---------------|------------|
|--------------|----------------|---------------|------------|
|--------------|----------------|-7-7--4-7-7--4-|-7-77-7-----|
|-5---5-55---5-|-55---5-5-5-7-5-|---------------|------------|

|---------------|------------|----------------|---------------|
|---------------|------------|----------------|---------------|
|-7-7--4-7-7--4-|-7-77-7-----|-7-7-7-7-7-7--7-|-7-77-7------4-|
|---------------|------------|----------------|---------5-7---|

Solo/Coda

|---------------|----------------|--------------|-----------------|
|---------------|--------------2-|--------------|-----------------|
|----4-7----7-4-|-7-4-7-7--2-4---|--------------|-----------------|
|-0------57-----|----------------|-2---0-2-2--0-|-2-2-0-2-2-0-2-4-|

|---------------|--------------|---------------|---------------|
|---------------|---4-7-7--4---|-9-----------6-|-9-99-9--------|
|-------------4-|-7------------|--------6-9----|-------------6-|
|-5-5--0-5-5----|--------------|----7-7--------|---------7-9---|

|--------------|----------------|---------------|---------------|
|--------------|----------------|---------------|---------------|
|-7---7------4-|-7-4-7-7------2-|---------------|---------------|
|-------05-7---|----------0-5---|-2-0--222-0--0-|-2-2--2--2-3-4-|

|---------------|---------------|----------------|----------------|
|-------------4-|-7-77-7--767x9-|----------------|----------------|
|---------4-7---|---------------|-7b--7-7-7-7--4-|-7-7-7-7------4-|
|-5-5--5--------|---------------|----------------|---------x5-7---|

|---------------|---------------|---------------|---------------|
|---------------|---------------|---------------|---------------|
|-7--7-7-7-7--7-|-7-77-7------4-|-7--7-7-7-7--7-|-7-77-7------4-|
|---------------|--------x5-7---|---------------|---------5-7---|

|---------------|---------------|---------------|---------------|
|---------------|---------------|---------------|---------------|
|-7--7-7-7-7--4-|-7-77-7------4-|-7--7-7-7-7--7-|-7-77-7------4-|
|---------------|---------5-7---|---------------|--------x5-7---|

|----------------|-----------------|----------------|---------------|
|----------------|-----------------|----------------|---------------|
|----------------|---------------4-|-7-7-7-7-7-7--7-|-7-77-7------4-|
|-0--0-0-0-0-0-0-|-0-0-0-0--/5-7---|----------------|---------5-7---|

|---------------|-------------*|
|---------------|-------------*|
|-7--7-7-7-7--7-|-7-7-7-7-----*|
|---------------|-------------*| fade


------------------
Let the Night Fall
------------------

88BPM, 4/4

Intro

|---------|---------|----------|------------|
|---------|---------|----------|------------|
|---------|---------|----------|-3---5---3--|
|---------|---------|-3--------|------------|

Verse

|-----------|-------------|-------------|------------|
|-----------|-------------|-------------|------------|
|-----------|-3-----------|------5---23-|-5---5-5----|
|-3----3----|-----3-3--3--|-0-----------|------------|

|-----------|------------|-------------|---------------|
|-----------|------------|-------------|-----------2-4-|
|-----------|-3----------|------5---23-|-5---555-5-----|
|-3----3----|-----3-3----|-0-----------|---------------|

Chorus

|------------|--------------|-------------|--------------|
|-5---2------|----------2-4-|-5---2-------|----------2-4-|
|---------2--|-3-3--5-------|---------2-x-|-3-3--5-------|
|------------|--------------|-------------|--------------|

|------------|---------------|-------------|---------------|
|-5---2------|-----------2-4-|-5---2-------|-----------2-4-|
|---------2--|-3-3--5--5-----|---------2-x-|-3-3--5--5-----|
|------------|---------------|-------------|---------------|

|------------|---------------|
|-/5-------5-|-/5------------|
|------------|----5-2--------|
|------------|--------5-3----|

Verse

|-----------|-------------|-------------|------------|
|-----------|-------------|-------------|------------|
|-----------|-3-----------|------5---23-|-5---5-5----|
|-3----3----|-----3-3--3--|-0-----------|------------|

|-------------|-------------|--------------|----------------|
|-------------|-------------|--------------|------------2-4-|
|---------0-2-|-3-----------|-------5---23-|-5-5--555-5-----|
|-3----3------|-----3-3--3--|-0---0--------|----------------|

Chorus

|------------|--------------|------------|--------------|
|-5---2------|----------2-4-|-5---2------|----------2-4-|
|---------2--|-3-3--5-------|---------2--|-3-3--5-------|
|------------|--------------|------------|--------------|

|------------|--------------|-------------|---------------|
|-5---2------|----------2-4-|-5---2-------|-----------2-4-|
|---------2--|-3-3--5-------|--------x2-x-|-3-3--5--5-----|
|------------|--------------|-------------|---------------|

|-----------------|--------------|
|-5-5-5-5-----5-5-|-5------------|
|---------2-5-----|---5-2--------|
|-----------------|-------5-3----|

Verse

|-----------|-------------|--------------|----------------|
|-----------|-------------|--------------|------------2-4-|
|-----------|-3-----------|-------5---23-|-5-5--555-5-----|
|-3----3----|-----3-3--3--|-0---0--------|----------------|

|--------------|-------------|--------------|---------------|
|-/5-----------|-------------|--------------|-----------2-4-|
|----------0-2-|-3-----------|-------5---23-|-5-5--5--5-----|
|-------3------|-----3-3--3--|-0---0--------|---------------|

Chorus

|------------|--------------|------------|-------------|
|-5---2------|----------2-4-|-5---2------|---------2-4-|
|---------2--|-3-3--5-------|---------2--|-3---5-------|
|------------|--------------|------------|-------------|

|------------|---------------|-------------|---------------|
|-5---2------|-----------2-4-|-5---2-------|-----------2-4-|
|---------2--|-3-3--5--5-----|---------2-x-|-3-3--5--5-----|
|------------|---------------|-------------|---------------|

|------------|---------------|------------|---------------|
|-5---2------|-----------2-4-|-5---2------|-----------2-4-|
|---------2--|-3-3--5--5-----|---------2--|-3-3--5--5-----|
|------------|---------------|------------|---------------|

|------------|---------------|-------------|---------------|
|-5---2------|-----------2-4-|-5---2-------|-----------2-4-|
|---------2--|-3-3--5--5-----|---------2-x-|-3-3--5-55-----|
|------------|---------------|-------------|---------------|

Coda

|-------------|---------------|-------------|---------------|
|-5---2-------|-----------2-4-|-5---2-------|---------------|
|---------2-x-|-3-3--5-x5-----|---------2-x-|-3-3--5--5-2---|
|-------------|---------------|-------------|-------------5-|

|---------------|----------------|------------|---------*|
|---------------|----------------|-/5---2-----|---------*|
|-----------2-2-|-3-3-3-5--5-2---|------------|---------*|
|-3---000-0-----|--------------5-|------------|---------*| fade


------------------------
Ain't That a Lot of Love
------------------------

120BPM, 4/4

Intro

|---------|
|---------|
|---------|
|---------|

|----------------|----------------|----------------|----------------|
|----------------|----------------|----------------|----------------|
|----------------|----------------|----------------|----------------|
|-5-5-5-5-5-2-5--|-5-5-5-5-5-2-0--|-5-5-5-5-5-2-5--|-5-5-5-5-5-2-0--|

Verse

|----------------|----------------|----------------|----------------|
|----------------|----------------|----------------|----------------|
|----------------|----------------|----------------|----------------|
|-5-5-5-5-5-2-5--|-5-5-5-5-5-2-5--|-5-5-5-5-5-2-5--|-5-5-5-5-5-2-5--|

|----------------|----------------|----------------|----------------|
|----------------|----------------|----------------|----------------|
|----------------|----------------|----------------|---------2---4--|
|-5-5-5-5-5-2-5--|-5-5-5-5-5-2-5--|-5-5-5-5-5-2-5--|-5-5-5-5---5----|

Chorus

|----------------|----------------|----------------|-----------------|
|----------------|----------------|----------------|-----------------|
|-5-5-5-5-5-2-5--|-5-5-5-5-5-2-5--|----------------|-----------0-2-4-|
|----------------|----------------|-5-5-5-5-5-2-5--|-5-5-5-5-5-------|

|----------------|----------------|----------|---------|
|----------------|----------------|----------|---------|
|-5-5-5-5-5-2-5--|-5-5-5-5-5-2-5--|----------|---------|
|----------------|----------------|-5--------|---------|

|----------------|----------------|----------------|----------------|
|----------------|----------------|----------------|----------------|
|----------------|----------------|----------------|----------------|
|-5-5-5-5-5-2-5--|-5-5-5-5-5-2-0--|-5-5-5-5-5-2-5--|-5-5-5-5-5-2-0--|

Verse

|----------------|----------------|----------------|----------------|
|----------------|----------------|----------------|----------------|
|----------------|----------------|----------------|----------------|
|-5-5-5-5-5-2-5--|-5-5-5-5-5-2-5--|-5-5-5-5-5-2-5--|-5-5-5-5-5-2-5--|

|----------------|----------------|----------------|----------------|
|----------------|----------------|----------------|----------------|
|----------------|----------------|----------------|---------2---4--|
|-5-5-5-5-5-2-5--|-5-5-5-5-5-2-5--|-5-5-5-5-5-2-5--|-5-5-5-5---5----|

Chorus

|----------------|----------------|----------------|----------------|
|----------------|----------------|----------------|----------------|
|-5-5-5-5-5-2-5--|-5-5-5-5-5-2----|----------------|------------2-4-|
|----------------|-------------5--|-5-5-5-5-5-2-5--|-5-5-5-5--5-----|

|----------------|----------------|----------|---------|
|----------------|----------------|----------|---------|
|-5-5-5-5-5-2-5--|-5-5-5-5-5-2----|----------|---------|
|----------------|-------------5--|-5--------|---------|

|----------------|----------------|----------------|-----------------|
|----------------|----------------|----------------|-----------------|
|----------------|----------------|----------------|-----------------|
|-5-5-5-5-5-2-5--|-5-5-5-5-5-2-0--|-5-5-5-5-5-2-5--|-5-5-5-5-5-2-0-2-|

Solo

|----------------|----------------|----------------|----------------|
|----------------|----------------|----------------|----------------|
|----------------|----------------|----------------|----------------|
|-5-5-5-5-5-2-5--|-5-5-5-5-5-2-0--|-5-5-5-5-5-2-5--|-5-5-5-5-5-2-0--|

|----------------|----------------|----------------|----------------|
|----------------|----------------|----------------|----------------|
|----------------|----------------|----------------|---------2---4--|
|-5-5-5-5-5-2-5--|-5-5-5-5-5-2-0--|-5-5-5-5-5-2-5--|-5-5-5-5---5----|

|----------------|----------------|----------------|----------------|
|----------------|----------------|----------------|----------------|
|-5-5-5-5-5-2-5--|-5-5-5-5-5-2-5--|----------------|------------2-4-|
|----------------|----------------|-5-5-5-5-5-2-5--|-5-5-5-5--5-----|

|----------------|----------------|----------|---------|
|----------------|----------------|----------|---------|
|-5-5-5-5-5-2-5--|-5-5-5-5-5-2-5--|----------|---------|
|----------------|----------------|-5--------|---------|

|----------------|----------------|----------------|----------------|
|----------------|----------------|----------------|----------------|
|----------------|----------------|----------------|----------------|
|-5-5-5-5-5-2-5--|-5-5-5-5-5-2-0--|-5-5-5-5-5-2-5--|-5-5-5-5-5-2-0--|

Verse

|----------------|----------------|----------------|----------------|
|----------------|----------------|----------------|----------------|
|----------------|----------------|----------------|----------------|
|-5-5-5-5-5-2-5--|-5-5-5-5-5-2-0--|-5-5-5-5-5-2-5--|-5-5-5-5-5-2-0--|

|----------------|----------------|----------------|---------------|
|----------------|----------------|----------------|---------------|
|----------------|----------------|----------------|-----------2-4-|
|-5-5-5-5-5-2-5--|-5-5-5-5-5-2-0--|-5-5-5-5-5-2-5--|-5-5--5--5-----|

Chorus

|----------------|----------------|----------------|-----------------|
|----------------|----------------|----------------|-----------------|
|-5-5-5-5-5-2-5--|-5-5-5-5-5-2-5--|----------------|---------2---2-4-|
|----------------|----------------|-5-5-5-5-5-2-5--|-5-5-5-5---5-----|

|----------------|----------------|----------|---------|
|----------------|----------------|----------|---------|
|-5-5-5-5-5-2-5--|-5-5-5-5-5-2-5--|----------|---------|
|----------------|----------------|-5--------|---------|

|---------|---------|
|---------|---------|
|---------|---------|
|---------|---------|

Coda

|----------------|----------------|----------------|----------------|
|----------------|----------------|----------------|----------------|
|----------------|----------------|----------------|----------------|
|-5-5-5-5-5-2-5--|-5-5-5-5-5-2-0--|-5-5-5-5-5-2-5--|-5-5-5-5-5-2-0--|

|----------------|----------------|----------------|----------------|
|----------------|----------------|----------------|----------------|
|----------------|----------------|----------------|----------------|
|-5-5-5-5-5-2-5--|-5-5-5-5-5-2-5--|-5-5-5-5-5-2-5--|-5-5-5-5-5-2-5--|

|---------*|
|---------*|
|---------*|
|---------*|


-------------------------
Christmas Must Be Tonight
-------------------------

128BPM, 4/4

Intro

|---------|---------|-------------|----------|
|---------|---------|-------------|----------|
|---------|---------|------2------|----------|
|---------|---------|-3-------3-0-|---0------|

|-------------|-----------|-------------|---------|
|-------------|-----------|-------------|---------|
|------2------|-----------|------2------|---------|
|-3-------3-0-|---0----0--|-3-------3-0-|---------|

Verse

|-----------|----------|-----------|------------|
|-----------|----------|-----------|------------|
|-----------|----------|-----------|-------2-3--|
|-3------3--|-3--------|-5------5--|-5----------|

|----------|-----------|-----------|-----------|
|----------|-----------|-----------|-----------|
|-5--------|-5----3----|-----------|------3----|
|----------|-----------|-3------3--|-3---------|

|-----------|-----------|-----------|------------|
|-----------|-----------|-----------|------------|
|-----------|-----------|-----------|------2--3--|
|-3------3--|-3----3----|-5------5--|-5----------|

|-----------|-------------|------------|-------------|
|-----------|-------------|------------|-------------|
|-5----5----|-5---x-3--3--|------------|----/2----5--|
|-----------|-------------|-3-----3-3--|-3-----------|

Transition

|-------------|-----------|-----------|------------|
|------2------|-----------|-----------|------------|
|---------5---|-----2--3--|-5------5--|------3--2--|
|-0---------5-|-----------|-----------|-3----------|

Chorus

|-------------|------------|-------------|------------|
|-------------|------------|-------------|------------|
|---------2---|-3----3--2--|---------2---|-3----3--2--|
|-5--5--5-----|------------|-5--5--5-----|------------|

|-------------|---------------|----------|---------------|
|-------------|---------------|----------|---------------|
|-------5-5---|------/2-0-----|----------|------/2-0-----|
|-5--5--------|-3---------3-0-|---0------|-3---------3-0-|

|--------|
|--------|
|--------|
|---0----|

Verse

|-----------|-----------|-----------|------------|
|-----------|-----------|-----------|------------|
|-----------|-----------|-----------|-------2-3--|
|-3------3--|-3------3--|-5------5--|-5----------|

|-----------|-------------|-----------|-----------|
|-----------|-------------|-----------|-----------|
|-5----5----|-5---x-3--3--|-----------|------3----|
|-----------|-------------|-3------3--|-3---------|

|-----------|-----------|-----------|-------------|
|-----------|-----------|-----------|-------------|
|-----------|-----------|-----------|----2--3--4--|
|-3------3--|-3----3----|-5------5--|-5-----------|

|-----------|-------------|-----------|-------------|
|-----------|-------------|-----------|-------------|
|-5----5----|-5---x-3--3--|-----------|----/2----5--|
|-----------|-------------|-3------3--|-3-----------|

Transition

|-------------|------------|--------------|------------|
|-----2-------|------------|--------------|------------|
|--------5-2--|---------3--|-5--5--5-5-5--|------3--2--|
|-0-----------|-5--5-------|--------------|-3----------|

Chorus

|-------------|------------|-------------|------------|
|-------------|------------|-------------|------------|
|---------2---|-3----3--2--|---------2---|-3----3--2--|
|-5--5--5-----|------------|-5--5--5-----|------------|

|-------------|---------------|----------|---------------|
|-------------|---------------|----------|---------------|
|-------5-5---|------/2-0-----|----------|------/2-0-----|
|-5--5--------|-3---------3-0-|---0------|-3---------3-0-|

|--------|
|--------|
|--------|
|---0----|

Verse

|------------|-----------|-----------|-------------|
|------------|-----------|-----------|-------------|
|------------|-----------|-----------|-------2-3h4-|
|-3----3--3--|-3------3--|-5------5--|-5-----------|

|-----------|-------------|-----------|------------|
|-----------|-------------|-----------|------------|
|-5----5----|-5---x-3--3--|-----------|------3--3--|
|-----------|-------------|-3------3--|-3----------|

|------------|-----------|-----------|-------------|
|------------|-----------|-----------|-------------|
|------------|-----------|-----------|-------2-3-4-|
|-3----3--3--|-3------3--|-5------5--|-5-----------|

|-----------|-------------|-----------|-------------|
|-----------|-------------|-----------|-------------|
|-5----5----|-5---x-3--3--|-----------|-------2-5---|
|-----------|-------------|-3------3--|-3--3--------|

Transition

|-----------|-----------|------------|------------|
|-2----2----|-----------|------------|------------|
|-----------|-----------|---5--5h7---|------3--2--|
|-----------|-5----5----|------------|-3----------|

Chorus

|-------------|------------|-------------|------------|
|-------------|------------|-------------|------------|
|---------2---|-3----3--2--|---------2---|-3----3--2--|
|-5--5--5-----|------------|-5--5--5-----|------------|

|-------------|---------------|----------|---------------|
|-------------|---------------|----------|---------------|
|-------5-5---|------/2-0-----|----------|------/2-0-----|
|-5--5--------|-3---------3-0-|---0------|-3---------3-0-|

|------------|
|------------|
|------3--2--|
|---0--------|

|-------------|------------|-------------|------------|
|-------------|------------|-------------|------------|
|---------2---|-3----3--2--|---------2---|-3----3--2--|
|-5--5--5-----|------------|-5--5--5-----|------------|

|-------------|---------------|----------|---------------|
|-------------|---------------|----------|---------------|
|-------5-5---|------/2-0-----|----------|------/2-0-----|
|-5--5--------|-3---------3-0-|---0------|-3---------3-0-|

Coda

|----------|---------------|----------|---------------|
|----------|---------------|----------|---------------|
|----------|------/2-0-----|----------|------/2-0-----|
|---0------|-3---------3-0-|---0------|-3---------3-0-|

|-----------|----------------|----------|---------------|
|---/2------|----------------|----------|---------------|
|-----------|-------/2-0-----|----------|------/2-0-----|
|-----------|-3--3-------3-0-|---0------|-3---------3-0-|

|---------------|----------------|----------|----------*|
|---/2--/2------|----------------|----------|----------*|
|----------5-2--|-------/2-0-----|----------|----------*|
|---------------|-3--3-------3-0-|---0------|-3--------*|


-------
Islands
-------

108BPM, 4/4

The '0's at the end of bars are very fast, like 32nd speed.

|----|
|----|
|--0-|
|----|

Part A

|--------------|----------|--------------|----------|
|--------------|----------|--------------|----------|
|-5----5-2-----|--------0-|-5----5-2-----|--------0-|
|----------5-3-|----------|----------5-3-|----------|

|------------|-------------|------------|----------|
|------4---5-|----5-7--7---|------4---5-|----------|
|-5----------|-----------0-|-5----------|--------0-|
|------------|-------------|------------|----------|

|------------|-----------|------------|-------------|
|------4---5-|-----5--4--|-----4---5--|--7--4-7--9--|
|-5----------|-----------|-7----------|-------------|
|------------|-----------|------------|-------------|

Part B

|-------------|--------------|------------|------------|
|-------------|-----------4--|-5----------|------------|
|-/9---5------|-------5-7----|-----7---5--|------------|
|----------7--|---5-7--------|------------|--5--5--5---|

|--------------|---------------|------------|------------|
|--------------|------------4--|-5----------|------------|
|-/9---5-5-----|-5------5-7----|-----7---5--|------------|
|-----------7--|----5-7--------|------------|--5--5--5---|

Part C

|-----------|-------------|------------|------------|
|-----------|-------------|------------|------------|
|-2---5-----|-------5---0-|-2---5------|------5---0-|
|-----------|-5--5--------|---------5--|---5--------|

|-----------|------------|------------|------------|
|-----------|------------|------------|------------|
|-2---5-----|------5---0-|-2---5------|------5-----|
|-----------|-5----------|---------5--|---5------5-|

Part A

|--------------|----------|--------------|----------|
|--------------|----------|--------------|----------|
|-5----5-2-----|--------0-|-5----5-2-----|--------0-|
|----------5-3-|----------|----------5-3-|----------|

|------------|-------------|------------|------------|
|-------4--5-|-----7--7\---|------4---5-|-----7--7---|
|-5----------|-----------0-|-5----------|------------|
|------------|-------------|------------|----------5-|

|------------|------------|-------5---4--|----------------|
|------4---5-|----5-5--4--|--------------|-/7---/7--5---5-|
|-5----------|------------|-3-3-3--------|------------7---|
|------------|------------|--------------|----------------|

Part B

|---------------|--------------|-------------|-------------|
|-/4--/4--2--x--|-----------4--|-/5----------|-------------|
|---------------|-------5-7----|------7---5--|-----2----2--|
|---------------|--5--7--------|-------------|--5-----5----|

|--------------|--------------|-------------|------------|
|------/9---7--|-----------4--|-/5----------|------------|
|-/9-----------|-------5-7----|------7---5--|-----2------|
|--------------|---5-7--------|-------------|--5-----5---|

Part C

|------------|--------------|------------|-------------|
|------------|--------------|------------|-------------|
|-2---5------|------2-5---0-|-2---5---5--|-------5---0-|
|----------2-|-5--5---------|------------|-5--5--------|

|-----------|------------|-----------|-----------|
|-----------|------------|-----------|-----------|
|-2---5-----|-----5----0-|-2---5-----|------5----|
|-----------|-5----------|-----------|---5-------|

Part A

|-----------|----------|--------------|----------|
|-----------|----------|--------------|----------|
|---5-------|--------0-|-5----5-2-----|----------|
|---------3-|----------|----------5-3-|--------5-|

|------------|------------|------------|-------------|
|-------4--5-|-----7--7---|-------4--5-|----x-7--7---|
|-5----------|------------|-5----------|-------------|
|------------|----------5-|------------|-----------5-|

|------------|-----------|-------------|----------------|
|-------4--5-|----5--4---|-----4---5/--|--/7-9--10h=11--|
|-5----------|-----------|-7-----------|----------------|
|------------|-----------|-------------|----------------|

Part B

|----------------|---------------|-------------|------------|
|-12---12--9-----|--7---------4--|-5-----------|------------|
|------------12--|--------5-7----|-----/7---5--|------------|
|----------------|----5-7--------|-------------|--5--5--5---|

|-------------|--------------|------------|-------------|
|------9---7--|-----------4--|-5----------|-------------|
|-/9----------|-------5-7----|-----7---5--|-------------|
|-------------|--5--7--------|------------|--5--5--5h7--|

Part C

|------------|--------------|------------|-----------|
|------------|--------------|------------|-----------|
|-----5------|-------5--5---|-----5-5----|-----5-----|
|-7--------7-|-5--5-------5-|-7----------|---------5-|

|-------------|-------------|-------------|-----------|
|-------------|-------------|-------------|-----------|
|-----5-5-----|-------5-----|-----5-5-----|-----5-----|
|-7---------7-|-5--5------5-|-7--------5--|---------5-|

Part A

|--------------|-----------|----------------|----------|
|--------------|-----------|----------------|----------|
|-5----5-2-----|-----------|-5--5-0-5-2-----|----------|
|----------5-3-|--3------5-|------------5-3-|--------5-|

|------------|-----------|-----4------|-------------|
|-------4--5-|-----------|--4------7--|--5----------|
|-5----------|----5------|------------|--------7--5-|
|------------|-------7---|------------|-----7-------|

|------------|------------|-------------|----------|
|------4-7-5-|------------|-----4--7--5-|----------|
|------------|-----2--5---|---5---------|----------|
|------------|--3---------|-------------|---3------|

Part B

|---------------|----------------|----------------|---------------|
|---------------|----------------|------/9--7-----|-------------2-|
|--9--7p5-------|----/7----------|-9--x-------9-5-|----7------25--|
|---------2-3-5-|-7-----3--3-5-7-|----------------|-7----3--3-----|

|--------------*|
|-----9--7-----*|
|-5--------9-5-*|
|--------------*| fade


------------------------
The Saga of Pepote Rouge
------------------------

108BPM, 4/4


|----|
|----|
|----|
|--2-|

Intro

|------------|-------------|-------------|------------|
|------------|-------------|-------------|------------|
|------------|-------------|-------------|------------|
|-3-----01-2-|-3---3--01-2-|-3---3--01-2-|-3-----01-2-|

Verse

|--------------|--------------|--------------|--------------|
|----5-53-3--3-|-2-2--2-------|----5-53-3--3-|-2-2--2-------|
|--------------|-------5------|--------------|-------5------|
|-3-3----------|---------01-2-|-3-3----------|---------01-2-|

|--------------|--------------|--------------|--------------|
|----5-53-3--3-|-2-2--2-------|--------------|--------------|
|--------------|-------5----2-|-3-33-33-32-2-|------25------|
|-3-3----------|---------35---|--------------|-5--5----01-2-|

|--------------|--------------|--------------|--------------|
|----5-53-3--3-|-2-2--2-------|----5-53-3--3-|-2-2--2-------|
|--------------|-------5------|--------------|-------5------|
|-3-3----------|---------01-2-|-3-3----------|---------01-2-|

|--------------|--------------|--------------|--------------|
|----5-53-3--3-|-2-2--2-------|--------------|--------------|
|--------------|-------5----2-|-3--3-33-32-2-|------25----2-|
|-3-3----------|---------35---|--------------|-5--5----35---|

Chorus

|--------------|--------------|--------------|--------------|
|------------2-|-5-53-32-2----|--------------|--------------|
|-3--3-05--5---|----------5-5-|-3--3-05-55-5-|----------2-2-|
|--------------|--------------|--------------|-3--3-35-5----|

|---------------|--------------|-------------|--------------|
|-------------2-|-5--5-53-32---|-------------|--------------|
|-3--3--05-55---|------------5-|-3--3--3--3--|------25------|
|---------------|--------------|---3--3--3---|-5--5----01-2-|

|-------------|-------------|-------------|------------|
|-------------|-------------|-------------|------------|
|-------------|-------------|-------------|------------|
|-3----3-01-2-|-3---3--01-2-|-3---3--01-2-|-3-----01-2-|

Verse

|--------------|--------------|--------------|--------------|
|----5-53-3--3-|-2-2--2-------|----5-53-3--3-|-2-2--2-------|
|--------------|-------5------|--------------|-------5------|
|-3-3----------|---------01-2-|-3-3----------|---------01-2-|

|--------------|--------------|-------------|-------------|
|----5-53-3--3-|-2-2--2-------|-------------|-------------|
|--------------|-------5----2-|-3---33-32-2-|-----25------|
|-3-3----------|---------35---|-------------|-5------01-2-|

|--------------|--------------|--------------|--------------|
|----5-53-3--3-|-2-2--2-------|----5-53-3--3-|-2-2--2-------|
|--------------|-------5------|--------------|-------5------|
|-3-3----------|---------01-2-|-3-3----------|---------01-2-|

|--------------|--------------|-------------|--------------|
|----5-53-3--3-|-2-2--2-------|-------------|--------------|
|--------------|-------5----2-|-3--3-33--2--|------25--5-2-|
|-3-3----------|---------35---|-------------|-5--5---------|

Chorus

|--------------|--------------|--------------|--------------|
|------------2-|-5-53-32-2----|--------------|--------------|
|-3--3-05--5---|----------5-5-|-3--3-05-55-5-|----------2-2-|
|--------------|--------------|--------------|-3--3-35-5----|

|--------------|--------------|--------------|--------------|
|------------2-|-5-55-53-32---|--------------|--------------|
|-3--3-05-55---|------------5-|-3--3--3--3---|------25------|
|--------------|--------------|---3--3--3--3-|-5--5----01-2-|

|------------|-------------|-------------|------------|
|------------|-------------|-------------|------------|
|------------|-------------|-------------|------------|
|-3----3---0-|-33--3--01-2-|-3---03-01-2-|-3-----01-2-|

Verse

|--------------|-------------|--------------|---------------|
|----5-53-3--3-|-2-2--2------|----5-53-3--3-|-2-2--2--------|
|--------------|-------5-----|--------------|-------5-------|
|-3-3----------|-----------2-|-3-3----------|----------01-2-|

|--------------|--------------|--------------|-------------|
|----5-53-3--3-|-2-2--2-------|--------------|-------------|
|--------------|-------5----2-|-3--3-33-32-2-|-----25------|
|-3-3----------|---------35---|--------------|-5------01-2-|

|--------------|--------------|--------------|--------------|
|----5-53-3--3-|-2-2--2-------|----5-53-3--3-|-2-2--2-------|
|--------------|-------5------|--------------|-------5------|
|-3-3----------|---------01-2-|-3-3----------|---------01-2-|

|--------------|--------------|-------------|-------------|
|----5-53-3--3-|-2-2--2-------|-------------|-------------|
|--------------|-------5----2-|-3---33-32-2-|-----25----2-|
|-3-3----------|---------35---|-------------|-5------35---|

Chorus

|--------------|--------------|--------------|---------------|
|------------2-|-5-53-32-2----|--------------|---------------|
|-3--3-05-55---|----------5-5-|-3--3-05-55-5-|-----------2-2-|
|--------------|--------------|--------------|-3--3-35-5-----|

|--------------|--------------|--------------|--------------|
|------------2-|-5-55-53-32---|--------------|--------------|
|-3--3-05-05---|------------5-|-3--3--3--3---|------25------|
|--------------|--------------|---3--3--3--3-|-5--5----01-2-|

|-------------|-------------|-------------|------------|
|-------------|-------------|-------------|------------|
|-------------|-------------|-------------|------------|
|-3---3--01-2-|-3---3--01-2-|-3---3--01-2-|-3-----01-2-|

Coda

|-------------|-------------|-------------|-------------|
|-------------|-------------|-------------|-------------|
|-------------|-------------|-------------|-------------|
|-3---3--01-2-|-3---3--01-2-|-3---3--01-2-|-3---3--01-2-|

|-------------|--------------|--------------|--------------|
|-------------|--------------|--------------|--------------|
|-------------|--------------|--------------|--------------|
|-3---03-3--0-|-3-3--03-3--0-|-3-3--03-01-2-|-3-3--3--0301-|

|--------------|--------------|--------------|--------------|
|--------------|--------------|--------------|--------------|
|--------------|--------------|--------------|--------------|
|-3-3--3--0301-|-3-3--3--0301-|-3-3--03-03-0-|-3-3--3--01-2-|

|-------------|--------------|--------------|--------------|
|-------------|--------------|----------2---|----2-----2---|
|-------------|--------------|--------------|--------------|
|-3---03-3--0-|-3-3--3--03-0-|-3-3--3--3--0-|-3-3--03-3--0-|

|--------------|--------------|--------------|--------------|
|--------------|--------------|--------------|--------------|
|--------------|--------------|--------------|--------------|
|-3-33-33-3--0-|-3-03-03-3--0-|-3--3-03-03-0-|-3-3-03--0101-|

|--------------|--------------|--------------|--------------*|
|--------------|--------------|--------------|--------------*|
|--------------|--------------|--------------|--------------*|
|-3-3--3--0101-|-3-3--3--0101-|-3-3--3--0101-|-3-3--3--0101-*| fade


------------------
Georgia on My Mind
------------------

104BPM, 4/4

Intro

|---------|---------|---------|---------|
|---------|---------|---------|---------|
|---------|---------|---------|---------|
|---------|---------|---------|---------|

Verse 1&2

|----------|----------|----------|----------|
|-3--------|----------|-2--------|----------|
|----------|----------|----------|----------|
|----------|-1--------|----------|-5--------|

|----------|----------|----------|-----------|
|----------|----------|----------|-1----1----|
|-5--------|-3--------|-1--------|-----------|
|----------|----------|----------|-----------|

|----------|-----------|----------|-----------|
|-3--------|-----------|----------|-----------|
|----------|-5------5--|----------|-----------|
|----------|-----------|-3--------|-3----3----|

|-----------|-----------|------------|----------|
|-----------|-----------|------------|----------|
|-6------6--|-5----5----|------------|-3--------|
|-----------|-----------|-3------5-6-|----------|

|----------|-----------|----------|-----------|
|-3--------|-3---------|-2--------|-----------|
|----------|-----------|----------|--------4--|
|-1--------|------1----|----------|-5---------|

|----------|----------|------------|-----------|
|----------|----------|------------|-1----1----|
|-5--------|-3--------|-1-----0-1--|-----------|
|----------|----------|------------|-----------|

|-----------|-----------|----------|-----------|
|-3----3----|-----------|----------|-----------|
|-----------|-5------5--|----------|-3----3----|
|-----------|-----------|-3--------|-----------|

|-----------|------------|------------|-----------|
|-----------|------------|-3-------3--|-2---------|
|-----------|-1----1--3--|------------|-----------|
|-1----1----|------------|------1-----|------5----|

Bridge

|-----7--7--|------7--7--|------7--7--|------7--7--|
|-----------|------------|------------|------------|
|-5---------|-5----------|-5----------|-5----------|
|-----------|------------|------------|------------|

|------7--7--|------7--7--|-----------|-----------|
|------------|------------|-----------|-5---------|
|-5----------|-5----------|-5------5--|-----------|
|------------|------------|-----------|------3----|

|----------|-----------|----------|------------|
|----------|-5------5--|-3--------|-2----------|
|-5--------|-----------|----------|------------|
|----------|-----------|----------|------0--4--|

|-----------|-----------|-----------|----------|
|-----------|-----------|-----------|----------|
|-----------|-----------|-----------|-3--------|
|-5------5--|-2----2----|-3----3----|----------|

Verse

|----------|-----------|-----------|-----------|
|-3--------|-----------|-2------2--|-----------|
|----------|--------3--|-----------|--------4--|
|-1--------|-1---------|-----------|-5---------|

|----------|----------|-----------|-----------|
|----------|----------|-----------|-----------|
|-5--------|-3--------|-----------|-6----6----|
|----------|----------|-6------6--|-----------|

|-----------|-----------|----------|-----------|
|-3----3----|-----------|----------|-----------|
|-----------|-5------5--|----------|-----------|
|-----------|-----------|-3--------|-3----3----|

|-----------|------------|-----------|------------|
|-----------|------------|-----------|------------|
|-6----6----|---6---8-6--|-5----5----|-5----5--5--|
|-----------|------------|-----------|------------|

|-------------|------------|------------|------------|
|-------------|------------|------------|------------|
|-------0---0-|-1----2---2-|-3-----0-3--|-3----3--5--|
|-3---3-------|------------|------------|------------|

|------------|------------|-----------|-----------|
|-3----3--3--|------------|-----------|-----------|
|------------|------------|-----------|-----------|
|------------|-5----5--5--|-6----6----|-5----3----|

|----------|--------*|
|----------|--------*|
|----------|--------*|
|-1~-------|--------*|


------------------
Knockin' Lost John
------------------

136BPM, 4/4

Intro

|-----------|-------------|-----------|-------------|
|-----------|----------47-|-----------|----------47-|
|-3---------|-5-------5---|-3---------|-5-------5---|
|------3----|------5------|------3----|-----5-------|

|-----------|-------------|-----------|-----------|
|-----------|----------47-|-----------|-----------|
|-3---------|-5-------5---|-3---------|-5---------|
|------3----|-----5-------|------3----|-----5-----|

Verse

|-------------|------------|-------------|--------------|
|-------------|------------|-------4--2--|--------------|
|-------------|------------|-5--5--------|--------------|
|-2--2--2--2--|-5--5----5--|-------------|-5--5--5--5-x-|

|-------------|-------------|-------------|------------|
|-------------|-------------|----------47-|------------|
|-------------|-------------|-5-------5---|-5----------|
|-2--2--2--2--|-5--5-55--5--|-----5-------|-----5------|

|-------------|-------------|-------------|--------------|
|-------------|-------------|-------4--2--|--------------|
|-------------|-------------|-5--5--------|--------------|
|-2--2--2--2--|-5--5-55--5--|-------------|-5--5--55-5-x-|

|-------------|-------------|-------------|-------------|
|-------------|-------------|----------47-|----------47-|
|-------------|-------------|-5-------5---|-5-------5---|
|-2--2--2--2--|-5--5--5--5--|-----5-------|-----5-------|

Chorus

|-----------|-------------|-----------|-------------|
|-----------|----------47-|-----------|----------47-|
|-3---------|-5-------5---|-3---------|-5-------5---|
|-----3-----|-----5-------|------3----|-----5-------|

|-----------|-------------|-----------|------------|
|-----------|----------47-|-----------|------------|
|-3---------|-5-------5---|-3---------|-5----------|
|------3----|-----5-------|------3----|-----5------|

|-----------|-----------|------------|-----------|
|-5---------|-4---------|------------|-----------|
|---7-------|---5-------|-7-4--------|-----------|
|-----------|-----------|---------8--|-5------5--|

Verse

|--------------|-------------|-------------|-------------|
|--------------|-------------|-------------|-------------|
|--------------|-------------|-5--5--5--7--|-------------|
|-2--2-22-22-2-|-5--5--5--5--|-------------|-5--5--55-44-|

|-------------|--------------|-------------|-----------|
|-------------|--------------|-------------|-----------|
|-------------|--------------|-5------05-0-|-5---------|
|-2--2--2--2--|-5--5-55-55-5-|-----5-------|-----5-----|

|-------------|--------------|-------------|--------------|
|-------------|--------------|-------------|--------------|
|-------------|--------------|-5--5--5--7--|--------------|
|-2--2--2--2--|-5-55--5-55-5-|-------------|-5--5--55-4-x-|

|-------------|-------------|-------------|-------------|
|-------------|-------------|-------------|----------47-|
|-------------|-------------|-5------05-0-|-5------05---|
|-2--2--2--2--|-5--5--5--5--|-----5-------|-----5-------|

Chorus

|-----------|-------------|-----------|-------------|
|-----------|----------47-|-----------|----------47-|
|-3---------|-5------05---|-3---------|-5------05---|
|------3----|-----5-------|------3----|-----5-------|

|-----------|-------------|-----------|-----------|
|-----------|----------47-|-----------|-----------|
|-3---------|-5------05---|-3---------|-5---------|
|------3----|-----5-------|------3----|-----5-----|

|-----------|-----------|-------------|-----------|
|-5---------|-4---------|-------------|-----------|
|---7-------|---5-------|-7-4---------|-----------|
|-----------|-----------|---------8\--|-5------5--|

Solo

|--------------|--------------|-------------|--------------|
|--------------|--------------|-------------|--------------|
|--------------|--------------|-5--5--5-57--|--------------|
|-2--2-22-22-2-|-5--5-55-55-x-|-------------|-5--5--5-54-4-|

|--------------|--------------|-------------|-----------|
|--------------|--------------|----------47-|-----------|
|--------------|--------------|-5------05---|-5---------|
|-2--2-22-22-2-|-5--5-55-55-5-|-----5-------|-----5-----|

|--------------|--------------|-------------|--------------|
|--------------|--------------|------x4--2--|--------------|
|--------------|--------------|-5--5--------|--------------|
|-2--2-22--2-2-|-5--5-55--5-5-|-------------|-5--5-55--4-4-|

|--------------|--------------|-------------|-------------|
|--------------|--------------|----------47-|----------47-|
|--------------|--------------|-5------05---|-5------05---|
|-2--2-22--2-2-|-5--5-55--5-5-|-----5-------|-----5-------|

Chorus

|-----------|-------------|-----------|-------------|
|-----------|----------47-|-----------|----------47-|
|-3---------|-5------05---|-3---------|-5------05---|
|------3----|-----5-------|------3----|-----5-------|

|-----------|-------------|-----------|-----------|
|-----------|----------47-|-----------|-----------|
|-3---------|-5------05---|-3---------|-5---------|
|------3----|-----5-------|------3----|-----5-----|

|-----------|-----------|------------|-----------|
|-5---------|-4---------|------------|-----------|
|---7-------|---5-------|-7-4--------|-----------|
|-----------|-----------|---------8--|-5------5--|

Verse

|-------------|-------------|-------------|-------------|
|-------------|-------------|-------4--2--|-------------|
|-------------|-------------|-5--5--------|-------------|
|-2--2--2--2--|-5--5-55-55--|-------------|-5--5--5-54--|

|-------------|-------------|-------------|-----------|
|-------------|-------------|----------47-|-----------|
|-------------|-------------|-5------05---|-5---------|
|-2--2--2--2--|-5--5--5--5--|-----5-------|-----5-----|

|-------------|-------------|-------------|-------------|
|-------------|-------------|----------2--|-------------|
|-------------|-------------|-5--5--5-----|-------------|
|-2--2--2--2--|-5--5--5--5--|-------------|-5--5-55-55--|

|-------------|-------------|-------------|-------------|
|-------------|-------------|----------47-|----------47-|
|-------------|-------------|-5------05---|-5------05---|
|-2--2--2--2--|-5--5-55-55--|-----5-------|-----5-------|

Chorus

|-----------|-------------|-----------|-------------|
|-----------|----------47-|-----------|----------47-|
|-3---------|-5------05---|-3---------|-5------05---|
|-----3-----|-----5-------|------3----|-----5-------|

|-----------|-------------|-----------|-----------|
|-----------|----------47-|-----------|-----------|
|-3---------|-5------05---|-3---------|-5---------|
|------3----|-----5-------|------3----|-----5-----|

|-----------|-----------|------------|-----------|
|-5---------|-4---------|------------|-----------|
|---7-------|---5-------|-7-4--------|-----------|
|-----------|-----------|---------8--|-5------5--|

Coda

|--------------|-------------|-------------|-------------|
|--------------|-------------|-------4-----|-------------|
|--------------|-------------|-5--5-7---7--|-------------|
|-2--2-22-22-2-|-5--5-55-55--|-------------|-5--5--5-54--|

|-------------|-------------|-----------|-----------*|
|-------------|-------------|-----------|-----------*|
|-------------|-------------|-5---------|-5---------*|
|-2--2--2--2--|-5--5--5--5--|-----5-----|-----5-----*| fade


-----------------
Livin' In a Dream
-----------------

92BPM, 4/4

Intro

|--------------|----------------|-----------------|------------|
|--------------|----------------|-----------------|------------|
|--------------|----------------|-----------------|------------|
|-3--3--3--x3--|-3--3--x3--3-01-|-3--3--x3--x3--x-|-3--3--3----|

Verse 1&2

|---------------|------------|---------------|------------|
|---------------|------------|---------------|------------|
|-------------2-|-3--3--5----|-------------2-|-3--3--5----|
|-3--3--3--x3---|------------|-3--3--3--x3---|------------|

|---------------|------------|--------------|----------|
|---------------|------------|-2------------|----------|
|-------------2-|-3--3--5----|----5--x3--5--|----------|
|-3--3--3--x3---|------------|--------------|-3--------|

|---------------|------------|---------------|------------|
|---------------|------------|---------------|------------|
|-------------2-|-3--3--5----|-------------2-|-3--3--5----|
|-3--3--3--x3---|------------|-3--3--3--x3---|------------|

|---------------|------------|--------------|-------------|
|---------------|------------|-2------------|-------------|
|-------------2-|-3--3--5----|----5--x3--5--|---------5-7-|
|-3--3--3--x3---|------------|--------------|-3-----7-----|

Bridge

|-------------|-------------|-------------|----------|
|-5-----------|---------2-4-|-5-----------|----------|
|---------0-2-|-3-----5-----|---------0-2-|-3--------|
|------3------|-------------|------3------|----------|

|---------------|------------|-------------|----------|
|---------------|------------|-------------|----------|
|-2---012-2--56-|-7----------|-----2-3---3-|-5--------|
|---------------|-----7-0----|-5-----------|----------|

Verse

|---------------|------------|---------------|------------|
|---------------|------------|---------------|------------|
|-------------2-|-3--3--5----|-------------2-|-3--3--5----|
|-3--3--3--x3---|------------|-3--3--3--x3---|------------|

|---------------|------------|---------------|----------|
|---------------|------------|-2-------------|----------|
|-------------2-|-3--3--5----|----5--x3--x5--|----------|
|-3--3--3--x3---|------------|---------------|-3--------|

Sax Solo

|---------------|------------|---------------|------------|
|---------------|------------|---------------|------------|
|-------------2-|-3--3--5----|-------------2-|-3--3--5----|
|-3--3--3--x3---|------------|-3--3--3--x3---|------------|

|---------------|------------|--------------|-------------|
|---------------|------------|-2------------|-------------|
|-------------2-|-3--3--5----|----5--x3--5--|---------5-7-|
|-3--3--3--x3---|------------|--------------|-3-----7-----|

Bridge

|-------------|-----------|-------------|----------|
|-5-----------|---------2-|-5-----------|----------|
|---------0-2-|-3---------|---------0-2-|-3--------|
|------3------|-----------|------3------|----------|

|--------------|------------|-------------|----------|
|-----------01-|-2----------|-------------|----------|
|-2----2--2----|-----2------|-----2-3---3-|-5--------|
|--------------|-------0----|-5-----------|----------|

Verse

|---------------|------------|---------------|------------|
|---------------|------------|---------------|------------|
|-------------2-|-3--3--5----|-------------2-|-3--3--5----|
|-3--3--3--x3---|------------|-3--3--3--x3---|------------|

|---------------|------------|---------------|----------|
|---------------|------------|-2-------------|----------|
|-------------2-|-3--3--5----|----5--x3--x5--|----------|
|-3--3--3--x3---|------------|---------------|-3--------|

Coda

|---------------|------------|---------------|------------|
|---------------|------------|---------------|------------|
|-------------2-|-3--3--5----|-------------2-|-3--3--5----|
|-3--3--3--x3---|------------|-3--3--3--x3---|------------|

|---------------|------------|-------------|----------|
|---------------|------------|-2-----------|----------|
|-------------2-|-3--3--5----|----5--3--5--|----------|
|-3--3--3--x3---|------------|-------------|-3--------| &fade


-------------------------
Twilight (Single Version)
-------------------------

128BPM, 4/4

Intro

|-------------|---------------|-------------|--------------|
|-8-5---5-----|---------------|-------------|--------------|
|---------8---|-8-5--1-1------|-1-1--1-1--x-|-1-1--1-1-----|
|-------------|----------1-3--|-------------|-----------1--|

Verse

||-------------|-------------|-------------|--------------| *Second time only
||o------------|-------------|-------------|--------------|
||o-1----1*----|-6----5------|-------------|------------x-|
||-------------|---------6\--|-3---1-3---x-|-3-3--1-3-----|

|--------------|-------------|-------------|--------------||
|------------x-|-1-1----1----|-3-3--1-3----|--3----------o||
|-3-3--1-3-----|------3------|-------------|----------0--o||
|--------------|-------------|-------------|----1--1------||

Chorus

|-----------|-----------|-------------|--------------|
|-----------|-----------|-------------|--------------|
|-1----1----|-6----6----|-1-1--1-1----|-1-1--1-1-----|
|-----------|-----------|-------------|-----------1--|

|-----------|-----------|--------------|-------------|
|-----------|-----------|--------------|----0--1--2--|
|-1----1----|-6----5----|-3---3----1-3-|--3----------|
|-----------|-----------|--------3-----|-------------|

|------------|------------|------------|-------------|
|-/3---------|-/3---------|-/3---------|--3----------|
|------------|------------|------------|----------3--|
|-------1----|-------1----|-------1----|----1--5-----|

|------------|-----------|--------------|--------------|
|-/3---------|-----------|--------------|--------------|
|-------6----|-5----3----|-1-1--1-1---x-|-1-1--1-3--5--|
|------------|-----------|--------------|--------------|

|-----------|---------------|--------------|--------------|
|-----------|---------------|--------------|--------------|
|-6----5----|-3--/5--3-1----|-1-1--1-1---x-|-1-1--1-1-----|
|-----------|------------3--|--------------|-----------1--|

Verse

||-----------|-------------|--------------|--------------|
||o----------|-------------|--------------|--------------|
||o-1--------|-6----5------|--------------|------------x-|
||-----------|---------6\--|-3-3--1-3---x-|-3-3--1-3-----|

|--------------|--------------|-------------|--------------||
|------------x-|-1-1----1---x-|-3-3--1-3----|--3----------o||
|-3-3--1-3-----|------3-------|-------------|----------0--o||
|--------------|--------------|-------------|----1--1------||

Chorus

|-----------|-----------|-------------|--------------|
|-----------|-----------|-------------|--------------|
|-1----1----|-6----6----|-1----1------|-1-1--1-1-----|
|-----------|-----------|--------1-3--|-----------1--|

|-----------|-----------|-------------|-------------|
|-----------|-----------|-------------|-------------|
|-1----1----|-6----5----|-3---3----1--|-3--1--0-----|
|-----------|-----------|--------3----|----------3--|

|-----------|-----------|-------------|-------------|
|-3---------|-3---------|-3--------/3-|-------------|
|-----------|-----------|-------------|-------3--5--|
|------1----|------1----|------1------|--1-5--------|

|-----------|-----------|--------------|--------------|
|-3---------|-----------|--------------|--------------|
|------6----|-5----3----|-1-1--1-1---x-|-1-1--1-3--5--|
|-----------|-----------|--------------|--------------|

|-----------|---------------|--------------|--------------|
|-----------|---------------|--------------|--------------|
|-6----5----|-3--/5--3-1----|--------------|-----------1--|
|-----------|-----------h3--|-3-3--1-3---x-|-3-3--1-3-----|

|-----------|--------------|--------------|--------------|
|-----------|--------------|--------------|-----8--7--5--|
|-6----5----|-3------------|--------------|--------------|
|-----------|----1--1-3-5--|-6-6--x-6---x-|-6-x----------|

|-------------|-------------|-------------|-------------|
|-3--------/3-|-------------|-3--------/3-|-------------|
|-------------|-------3--5--|-------------|-------3--5--|
|------1------|--1-5--------|------1------|--1-5--------|

|-----------|-----------|-----------|------------|
|-3---------|-----------|-----------|------------|
|------6----|-5----3----|-----------|-------13\--|
|-----------|-----------|-/6~-------|------------|

Coda

|-----------|---------------|--------------|--------------|
|-----------|---------------|--------------|--------------|
|-6----5----|-3--/5--3-1----|--------------|-----------1--|
|-----------|-----------h3--|-3-3--1-3---x-|-3-3--1-3-----|

|-----------|--------------|-------------|--------------|
|-----------|--------------|-------------|--------------|
|-6----5----|-3---------0--|-1-1--1-1----|-1-1--1-3--5--|
|-----------|----1--1-3----|-------------|--------------|

|-----------|---------------|-------------|--------------|
|-----------|---------------|-------------|--------------|
|-6----5----|-3--/5--3-1----|-------------|-----------1--|
|-----------|-----------h3--|-3-3--1-3----|-3-3--1-3-----|

|------------|--------------|-------------|------------*|
|------------|--------------|-------------|------------*|
|-6----5---x-|-3---------0--|-1---1-1---1-|-1---1-1----*|
|------------|----1--1-3----|-------------|------------*| fade


--------------------------------------
Georgia on My Mind (Alternate Version)
--------------------------------------

104BPM, 4/4

Real Intro [starts at 00:30]

|---------|---------|---------|---------|
|---------|---------|---------|---------|
|---------|---------|---------|---------|
|---------|---------|---------|---------|

Verses 1&2

|----------|----------|------------|----------|
|-3--------|----------|-2------5-6-|-7--------|
|----------|----------|------------|----------|
|----------|-1--------|------------|----------|

|----------|----------|----------|-----------|
|----------|----------|----------|-1----1----|
|-5--------|-3--------|-1--------|-----------|
|----------|----------|----------|-----------|

|----------|----------|----------|-----------|
|-3--------|----------|----------|-----------|
|----------|-5--------|----------|-----------|
|----------|----------|-3--------|-3----3----|

|-----------|-----------|------------|------|
|-----------|-----------|------------|------|
|-6----6----|-5------5--|------------|-3----|
|-----------|-----------|-3----3---6-|------|

|-----------|-----------|----------|-----------|
|-3---------|-3----3----|-2--------|-----------|
|--------3--|-----------|----------|------4----|
|-1---------|-----------|----------|-5---------|

|----------|----------|----------|-----------|
|----------|----------|----------|-1------1--|
|-5--------|-3--------|-1--------|-----------|
|----------|----------|----------|-----------|

|-----------|-----------|-----------|-----------|
|-3----3----|-----------|-----------|-----------|
|-----------|-5----5----|-----------|-3----3----|
|-----------|-----------|-3----3----|-----------|

|------------|------------|-------------|------------|
|------------|------------|----------3--|-2----------|
|---------0--|-1----1--3--|------0-3----|---------4--|
|-1----1-----|------------|-1-----------|------5-----|

Bridge

|---------7--|--------7--|--------7--|--------7--|
|------------|-----------|-----------|-----------|
|-/5---------|-5---------|-5---------|-5---------|
|------------|-----------|-----------|-----------|

|--------7--|--------7--|----------|-------------|
|-----------|-----------|----------|-5----5--/7--|
|-5---------|-5---------|-5--------|-------------|
|-----------|-----------|----------|-------------|

|----------|----------|-----------|------------|
|----------|-5--------|-3------3--|-2----2-----|
|-5--------|----------|-----------|------------|
|----------|----------|-----------|---------4--|

|------------|-----------|------------|-----------|
|------------|-----------|------------|-----------|
|------------|-----------|----------1-|-3----3----|
|-5----5--5--|-2----2----|-3----3-----|-----------|

Verse

|-----------|-------------|-----------|------------|
|-3---------|-/3----------|-----------|------7-----|
|--------3--|-------------|-7------7--|---------4--|
|-1---------|-------1--4--|-5---------|-5----------|

|----------|----------|------------|-----------|
|----------|----------|------------|-1----1----|
|-5--------|-3--------|-1-----0-1--|-----------|
|----------|----------|------------|-----------|

|-----------|-----------|------------|-----------|
|-3----3----|-----------|------------|-----------|
|-----------|-5----5----|------------|-----------|
|-----------|-----------|-3----3--3--|-3----3----|

|-----------|-------------|------------|-----------|
|-----------|-------------|------------|-----------|
|-6----6----|-6----6--/8--|-5----------|-5----5----|
|-----------|-------------|--------/5--|-----------|

|-------------|------------|-------------|-------------|
|-------------|------------|-------------|-------------|
|-------0---0-|-1----2---2-|-3-----0-3-0-|-3--3--3--5--|
|-3---3-------|------------|-------------|-------------|

|-----------|-----------|-----------|-----------|
|-3---------|-----------|-----------|-----------|
|-----------|-----------|-----------|-----------|
|------1----|-5------5--|-6----6----|-5----3----|

|----------|---------*|
|----------|---------*|
|----------|---------*|
|-1~-------|---------*|


-------------
Tabbed by Gabriel Wilson (199X) using Powertab Editor.
I make no money from the writing of this tab.
Show more