sponsored links
This is Matoya's Cave, recreated by the Black Mages, They made it this intro

to the song. See if you can play it. Its 100000000% correct so don't worry.

Just listen to the song and look at the tab and you will see i did a awesome job.

| /  slide up
| \  slide down
| h  hammer-on
| p  pull-off
| ~  sustained note
| H  harmonic
| x  Mute note


E|------------------------------------------------------------0~~~~---------|
B|--12\-8----10----7~~~~--------7-8-7-------8--------10\-----3~~~~~---------|
G|----------------------------------------0--------0--------0~~~~~~---------|
D|--12\-9----11----7~~~~------7-------7/9-----9/11---------4~~~~~~~---------|
A|--------------------------------------------------------------------------|
E|--------------------------0~~~~~~~~~~~~~~~~~~~~~~~~~~~~~~~~~~~~~~~~~~~~~~~|


E|--------------------------------------------------------------------------|
B|--12\-8----10----7~~~~----------8-7-----3-----5-------7-------8--------10-|
G|------------------------------0-------0-----0-------0-------0--------0----|
D|--12\-9----11----7~~~~------7-------4-----5-----5/7-----7/9-----9/11------|
A|--------------------------------------------------------------------------|
E|--------------------------0~~~~~~~~~~~~~~~~~~~~~~~~~~~~~~~~~~~~~~~~~~~~~~~|


E|--------------------------------------------------------------------------|
B|-----------12~~~---14------12-----10-----8-----7-----5-----3-----2~~~~~~~~|
G|-------0~~~~~~~~------0-------0------0-----0-----0-----0-----0-----0~~~~~~|
D|--12~~~~~~~~~~~~--------14------11-----9-----7-----5-----4-----2-----2~~~~|
A|-------------------12--------------------------------------------------0~~|
E|--------------------------------------------------------------------------|
 For this part you need to use two fingers of your right hand to make the

harmonics 12 frets above what fret you are holding with your left hand.
(this is if your not lefty just reverse the hands if you are)

So the following notes are 12 frets higher in tone.

  -h-h-h-h
E|-------2---------------------------------------------------------|
B|-----0-----------------------------------------------------------|
G|---2-------------------------------------------------------------|
D|-0---------------------------------------------------------------|
A|-----------------------------------------------------------------|
E|-----------------------------------------------------------------|
Show more
sponsored links
sponsored links