sponsored links
intro
e]--------------------X-X-X-X----------------------2--
B]--------------------X-X-X-X---------------------3---
G]-7-7-7---------7----X-X-X-X-7-7-7---------7----2----
D]-7-7-7-5-5-5-5-7----X-X-X-X—7-7-7-5-5-5-5-7---------
A]-5-5-5-5-5-5-5-5----X-X-X-X-5-5-5-5-5-5-5-5---------
E]-------3-3-3-3------X-X-X-X-------3-3-3-3-----------

verse(all of them are the same the fast on is just the chords held play the first bit 4 times and the second bit before the last line of each verse)
e]----------------- e]-----------------
B]----------------- B]-----------------
G]-7-7-7---------7- G]-----------------
D]-7-7-7-5-5-5-5-7- D]-7-7-7-7-7-7-7-7-
A]-5-5-5-5-5-5-5-5- A]-7-7-7-7-7-7-7-7-
E]-------3-3-3-3--- E]-5-5-5-5-5-5-5-5-
Show more
sponsored links
sponsored links