esse riff aparece na introdu??o e no refr?o da m?sica, tocado repetidas vezes.

E | --------------------------------------------------------
B | --------------------------------------------------------
G | ---3p0-0-5p0-0-3p0-0-5p0-3p0-5p0------------------------
D | --------------------------------------------------------
A | --------------------------------------------------------
E | --------------------------------------------------------

a m?sica soa melhor em power chord, mas aqui vai a transcri??o com as notas "inteiras"...





Gm                        Gm Fm Gm Fm C Bb
Bad fun sister, time to go
Gm                        Gm Fm Gm Fm C Bb
Life's too short, on with the show
C                                       C
I said, get your kicks on the razor's edge
Gm Fm Gm       Gm Fm Gm
Atomic bomb overhead


Gm                        Gm Fm Gm Fm C Bb
Set controls for the sun
Gm                        Gm Fm Gm Fm C Bb
Bad fun baby just begun
C                          C
Rhythm like a rumblin' train
Gm Fm Gm       Gm Fm Gm
Hit those skins, explode my brain

REFR?O (riff)


Gm                 Fm      C        Bb
Spirit like a rumblin' train
Gm                 Fm      C        Bb
Spirit of the thunderin' rain
Gm                 Fm      C        Bb
Vibrations got you on the run
Gm                 Fm      C 
Electric child on bad fun


Gm                        Gm Fm Gm Fm C Bb
Mayhem children take no lip
Gm                        Gm Fm Gm Fm C Bb
Rev your engine from the hip
C                            C
Yeah nighttime, she's callin' you
Gm Fm Gm       Gm Fm Gm
Ghetto star you'll go far


Gm                        Gm Fm Gm Fm C Bb
Dress up in your fancy clothes
Gm                        Gm Fm Gm Fm C Bb
Set good times to overload
C                            C
Rhythm like a rumblin' train
Gm Fm Gm       Gm Fm Gm
Hit those skins, explode my brain

2X REFR?O (riff) 


Gm                 Fm      C        Bb
Spirit like a rumblin' train
Gm                 Fm      C        Bb
Spirit of the thunderin' rain
Gm                 Fm      C        Bb
Vibrations got you on the run
Gm                 Fm      C 
Electric child on bad fun



SOLO - um solo relativamente f?cil, ? s? treinar e mandar brasa depois. :-)


E | ---3-------3---3---3----------3--------3----------3------------- | 
B | ---6-------6---6---6---------3--6p3---3--6p3----3---6p3--6b8r6-- | 
G | ---5b7-----5b7-5b7-5b7r5--5b7------5b7------5b7----------------3 | 
D | ---------------------------------------------------------------- | 
A | ---------------------------------------------------------------- | 
E | ---------------------------------------------------------------- | 

18x RAPIDAMENTE!

E | ---15----------------------- | 
B | -15---18P15----------------- | 
G | ------------17B1(b9)---------- |     
D | ---------------------------- | 
A | ---------------------------- | 
E | ---------------------------- | 


E | --18b20--18--15----15----18b20--18--15----15-------------------- | 
B | ----------------18---------------------18-----15-----15--18b20-- | 
G | --------------------------------------------------17b1(b9)-------- | 
D | ---------------------------------------------------------------- | 
A | ---------------------------------------------------------------- | 
E | ---------------------------------------------------------------- | 

5x
A | ------------------- | 
B | ------------------- | 
G | ------------------- | 
D | ------------------- | 
B | -15-----15--18b20-- | 
G | ---17b1(b9)---------- | 


E | -18B20-18B20-18B20-18B20-18B20-18-20B22~~~~~~----------- | 
B | ---------------------------------------------18~~~~~~~~- | 
G | -------------------------------------------------------- | 
D | -------------------------------------------------------- | 
A | -------------------------------------------------------- | 
E | -------------------------------------------------------- | 

obs. para o efeito final deslize a palheta sob a corda E do corpo para o bra?o com a distor??o ligada.

2X REFR?O (riff) 


Gm                 Fm      C        Bb
Spirit like a rumblin' train
Gm                 Fm      C        Bb
Spirit of the thunderin' rain
Gm                 Fm      C        Bb
Vibrations got you on the run
Gm                 Fm      C 
Electric child on bad fun
Show more