Intr: Dm  Am  


Riff:
 ----------------------
 ----------------------
 ----------------------
 -----------------5-7--
 --7-8--3-2--7-8-------
 ----------------------


       (D)                (A)
 -1-1-3-1-0-1-0--------0-0-0-0-0-0-0----
 -3-3-3-3-3-3-3--------1-1-3-1-0-1-0----
 -2-2-2-2-2-2-2--------2-2-2-2-2-2-2----  -> adicionantes das notas
 ----------------------2-2-2-2-2-2-2----          na m?sica
 ---------------------------------------
 ---------------------------------------



          D5                    A5
There's a whisper in the wires (no love)
      D5                  A5
of a bad train it coming (no love)
         D5                   A5
from the heart of the desert (no love)
         D5                    A5
and the rhythms of my hometown

                Riff


    D5            A5
My eyes are open (no love)
     D5                 A5
watching for the train (no love, no love)
         D5                     A5
just a breath across the ocean (Feel no love)
        D5          A5
If it flies it dies

            Riff


   D5                A5
Flags into a pocket (no love)
       D5                      A5
we're standing on a platform (Feel no love)
   D5                    A5
In everyone a hook line (no love, no love)
   D5                    A5
against me making time (feel no love)


    D5                A5
whisper in the wires (no love)
      D5                  A5
of a bad train it coming (no love, no love)
         D5                   A5
from the heart of the desert (no love)


     D5                         A5
and the rhythms of my hometown
     D5                         A5
and the rhythms of my hometown (feel no love)
     D5                         A5
and the rhythms of my hometown
Show more