a m?sica ? muito boa e bem f?cil... ela ? praticamente toda tocada em A C G..

intr:
-------------------------------------------
-------------------------------------------
------------------------------------------- 
---7-5--7-5--5-7---7-5---------------------  4x
-0---------------3---------------0---------
-----------------------3--3--3-5-----------

--------------------------------------------------------------------
--------------------------------------------------------------------
--------------------------7-7-5-5-----------------------------------
-7-7-7-5-5-5--7-7-7-5-5-5---------7-7-7-5-5-5--7-7-7----------------  2x
------------------------------------------------------5-5-5-7-7-5---
--------------------------------------------------------------------


A5                          C5       G5        A5  C5  G5
it's so nice to get away, get away for a day
          A5                      C5          G5               A5  C5  G5
i see a hollow man gun in hand, gun in hand it points my way
      A5                        C5       G5                A5  C5  G5
he follows me everywhere and every day i got to get away
         A5              C5             G5        A5  C5  G5
i won't miss him if he goes away and stays away


 G5          Riff  A5          Riff   A5      Riff   A5
just a hunter    for the devil    hollow man   hollow man hollow man


Riff:
---------------------------------------------
---------------------------------------------
---------------------------------------------
---------------------------------------------
----5-5-5-3-3-3-2-2-0------------------------
--3------------------------------------------
Show more