HOLLOW MAN
The Cult

Taken from the Beggars Banquet album Love (1985)

Transcribed by: Damian Pamminger (TwitcheD_85@hotmail.com)

Standard tuning: E A D G

Fig. 1
|------------------------|--------------------------------|--------|
|------------------------|--------------------------------|-REPEAT-|
|-0-0--------------------|-0-0------------3-------------- |--------|
|------------------------|-------------------------3------|--------|

Fig. 2a
|--------------------------------------------------------------------- |
|--------------------------------------------------------------------- |
|-0-0-0-0-0-0-0-0-0-0-0-0-0-0-0-0-3-3-3-3-3-3-3-3--------------------- |
|---------------------------------------------------3-3-3-3-3-3-3-3--- |

Fig. 2b
|----------------------------------------------------------- |
|----------------------------------------------------------- |
|-0----0-0------0----0-0------3----3-3---------------------- |
|--------------------------------------------3----3-3------- |

Fig. 2c
|--------------------------------------------------------------------- |
|--------------------------------------------------------------------- |
|-0-0-0-0-0-0-0-0-0-0-0-0-0-0-0-0-3-3-3-3-3-3-3-3--------------------- |
|---------------------------------------------------3-3-3-3-3---3----- |

Fig. 3
|----------------------------------------------------------------------------- |
|----------------------------------------------------------------------------- |
|-0-0-0-0-0-0-0-0-0-0-0-0-0-0-0-0-----------------------------------3-3-3-3--- |
| ----------------------------------3-3-3-3-3-3-3-3-3-3-3-3-3-3-3-3----------- |

|------------------------------------------------------------- |
|--------------------------4-4-4-4-4-4-4-4-3-3-3-3-3-3-3-3---- |
|-3-3-3-3-3-3-3-3-3-3-3-3------------------------------------- |
|------------------------------------------------------------- |

End
|---------------------|
|---------------------|
|----0----------------|
|---------------------|
Show more