intr: 

---------------------------------------------
--1----3---1---0---1-------------------------
--2----2---2---2---2-------------------------
--2----2---2---2---2-------------------------
---------------------------------------------
---------------------------------------------


---------------------------------------------
-------3---1---0---1-------------------------
---------------------------------------------
--2----2---2---2---2-------------------------
--2----2---2---2---2-------------------------
---------------------------------------------


solo da intr:

---------------------------------------------
--0h3--5--0---------0h1--0--3----------------
---------------------------------------------  
---------------------------------------------        
---------------------------------------------
---------------------------------------------





Am           Em
indian womem let down you hair
Am           Em
indian womem let down you hair
Am             Em                                   igual a intr/
blood red wine layered in time
Am             Em
blood red wine layered in time


   C          G          D   Am
standing at edge of the word
        C       G           D      Am
please help me girl please help me girl


Am                     Em
standing at the forest awaiting your penance
Am                     Em
standing at the forest awaiting your penance
Am           Em                                     igual a intr/
indian womem let down you hair
Am           Em
indian womem let down you hair


   C          G          D   Am
standing at edge of the word
        C       G           D      Am
please help me girl please help me girl


Am                       Em
all the temples stand in ruin
Am                              Em
reaching out to the gods in the sky
Am                           Em
while the earth beats to the rhythm
Am                Em     G  D  Am
my indian lover's high high
Show more