NIRVANA
The Cult

Taken from the Beggars Banquet album Love (1985)

Transcribed by: Damian Pamminger (TwitcheD_85@hotmail.com)

Standard tuning: E A D G

Fig. 1a
|----------------------------------------------------------------------|
|----------------------------------------------------------------------|
| ----------------------------------7-7-7-7-7-7-7-7-5-5-5-5-5-5-5-5----|
|-7-7-7-7-7-7-7-7-5-5-5-5-5-5-5-5--------------------------------------|

Fig. 1b
|----------------------------------------------------------------------|
|----------------------------------------------------------------------|
| ----------------------------------7-7-7-7-7-7-7-7-5-5-5-5-5-5-7-9----|
|-7-7-7-7-7-7-7-7-5-5-5-5-5-5-5-5--------------------------------------|

Fig. 2
|------------------------------|-------------------------------|----------|
|------------------------------|-------------------------------|-REPEAT---|
| ---------------------5-5-5-5-|----------------------5-5-5-5--|----------|
|-7-7-7----2-2---3------------ |-7-7------2-2---3--------------|----------|

Fig. 3
|--------------------------------------------------------------------------|
|--------------------------------------------------------------------------|
|--------------------------5-5-5h-7-----------------------5-7--------------|
|-7-7-7-77-77-7-77-77-7-7----------7-77-7-7-7-77-77-7-7------5-5-5-55------|

End
|----------------------------------------------------------------------------------|
|----------------------------------------------------------------------------------|
|----------------------------------7-7-7-7-7-7-7-7-5-------------------------------|
|-7-7-7-7-7-7-7-7-5-5-5-5-5-5-5-5------------------------3-----7-------------------|
Show more