Title: Rain
Artist: The Cult
Album: Pure Cult
Tabber: Stephan R.
Email: cyberbassist@hotmail.com


intro/chorus

    D                                C               G                 2X
G|----------------------------------------------------------------------|
D|----------------------------------------------------------------------|
A|-/5-5-5-5-5-5-5-5-5-5-5-5-5-5-5-5--3-3-3-3-3-3-3-3--------------------|
E|---------------------------------------------------3-3-3-3-3-3-3-3----|

Verse
    D                               C               G
G|----------------------------------------------------------------------|
D|----------------------------------------------------------------------|
A|-5-5-5-5-5-5-5-3H5-5-5-5-5-5-5-5--3-3-3-3-3-3-3-3---------------------|
E|--------------------------------------------------3-3-3-3-3-3-3-3-----|


Pre-Chorus
   D               F               C               G                   2X
G|----------------------------------------------------------------------|
D|----------------------------------------------------------------------|
A|-5-5-5-5-5-5-5-5-----------------3-3-3-3-3-3-3-3----------------------|
E|-----------------1-1-1-1-1-1-1-1-----------------3-3-3-3-3-3-3-3------|


Fill (1:18)
    D             3X                 
G|-------------------||-------------------------------------------------|
D|*-----------------*||---------3-3-5-5---------------------------------|
A|*-5-5-5-5-5-5-5-3-*||-5-5-5-5-----------------------------------------|
E|-------------------||-------------------------------------------------|


Interlude (2:29)
     D                      C         G
G|---------------------------------------------------------------------|
D|-*----------------------------------------------17-17-17----17-----*-|
A|-*/5-55-5----3-5-55-5-----3/15-15-15--15--15-15----------17------3-*-|
E|----------5------------5---------------------------------------5-----|


Any correction or comment, please email me: cyberbassist@hotmail.com
Enjoy
KeeP IT SiMpLE!
Show more