The Cult - "She Sells Sanctuary" - Bass Tab

This is just a touch-up of Johari Taylor's tab, so credit to him
for writing the chorus and verse. I noticed the interlude and final
chorus weren't included, nor a song formation, so all of that is credit
to shaneo632. Any questions - e-mail me at shaneo632@hotmail.com. Thanks
and enjoy the tab.

Chorus:
|-----------------|-----------------|-----------------|
|-----------------|-----------------|-----------------|
|-5-5-5-5-5-5-5-5-|-5-5-5-5-5-5-5-5-|-3-3-3-3-3-3-3-3-|
|-----------------|-----------------|-----------------|
    
|-----------------|
|-----------------|
|-----------------|
|-3-3-3-3-3-3-3-3-|
    
Verse:
|-----------------|-----------------|-----------------|
|-----------------|-----------------|-----------------|
|-5-5-5-5-5-5-5-5-|-5-5-5-5-5-5-5-5-|-3-3-3-3-3-3-3-3-|
|-----------------|-----------------|-----------------|

|-----------------|
|-----------------|
|-2-2-2-2---------| 
|---------3-3-3-3-|

Interlude:

|-----------------|
|-----------------| Let note ring
|-----------------|
|3----------------|

Ending Chorus:
|-----------------|-----------------|-----------------|
|-----------------|-----------------|-----------------|
|-5-5-5-5-5-5-5-5-|-5-5-5-5-5-5-5-5-|-3-3-3-3-3-3-3-3-|
|-----------------|-----------------|-----------------|
    
|-----------------||-----------------|
|-----------------||-----------------| Let final note ring
|-----------------||-----------------|
|-5-3-3-3-2-3-3-3-||-5---------------| 

Song formation:
.:Guitar begins:.
Chorus x2 (0:18-0:32)
Verse x2 (0:32-0:45)
Chorus x2 (0:45-0:59)
Verse x2 (0:59-1:13)
Chorus x4 (1:13-1:41)
Verse x2 (1:41-1:55)
Chorus x2 (1:55-2:09)
Verse x4 (2:09-2:36)
Chorus x4 (2:36-3:04)
Interlude x2 (3:04-3:16)
.:Break for drums:.
Chorus x6 (3:18-3:59)
Ending Chorus (3:59-4:07)
.:Guitar finishes:.
Show more