Aritist-The Cult
Song -She Sells Sanctuary
Album-The Cult
Words by-Ian Astbury
Tabbed By-Smellslikefeet1

the intro and the fills are 100% right u need an eco pad to make it sounds exact
im  not totally sure about the cords 

H-Hammeron
S-slide to
P-pulloff
 D      C     G
|---| |---| |-3-|
|---| |---| |-3-|
|-7-| |-5-| |-0-|
|-7-| |-5-| |-0-|
|-5-| |-3-| |-2-|
|---| |---| |-3-|

Intro
|------------------------------------|-----------------------------------|
|---10--8--7---7-8--3-3--1-1-3-3-----|---10--8--12-12-10--8h10-10-8h10-10|
|--------------------------------0-0-|-----------------------------------|
|-0---0--0---0---------0-----------2-|-0---0---0---------0---------------|
|------------------------------------|-----------------------------------|
|------------------------------------|-----------------------------------|

|------------------10-|
|-10--8---10--8-------|
|-----0---------------|
|---0---0---0---0---0-|

                
Show more