INTRO W/ Riff 1 then Riff 2

RIFF 1:
|---------|--------------------------|--------------------|
|---------|---10---8---7-------------|--------------------|
|---------|----7---7---7---7---5h7-5h|=7-5---7---2----(2)-|
|---------|-0----0---0---0---0-------|-----0---0----------|
|---------|--------------------------|--------------------|
|---------|--------------------------|--------------------|

Riff 2:
|--------------------------------|-------------------------|
|--------------------------------|--------------15----(15)-|
|---14---12---16---14---12h14-12h|=14-12---14--------------|
|-0----0----0----0----0----------|-------0----0------------|
|--------------------------------|-------------------------|
|--------------------------------|-------------------------|


PRE-VERSE w/ Riff 3

RIFF 3:    D5    G5/DD G5DD  D         CsusD/D D5G5DD
           Gtrs I, II
       ||----------------------------|-----------------------||
       ||o-10-10-8-8-7-8p=7----------|-----------8p=7-------o||
       ||---7--7-7-7-7-7--7--7-7-7-7-|-5-5-7-5-7-7--7--7-7---||
       ||---0--0-0-0-0-0-(0)-0-0-0-0-|-0-0-0-0-0-0-(0)-0-0---||
       ||o---------------------------|----------------------o||
       ||----------------------------|-----------------------||
       |
       |   Gtr III
       ||----------------------------|--------------3--3-3---||
       ||o---------------------------|--------------3--3-3--o||
       ||----------------------------|--------------0--0-0---||
       ||----------------------------|--------------x--x-x---||
       ||o---------------------------|--------------2--2-2--o||
       ||----------------------------|--------------3--3-3---||

 

VERSE (w/ Riff 4  X2)

RIFF 4:    D                                 Csus2/D         G5/D
           PM|   PM|   PM  PM|   PM|   PM    PM|   PM|   PM  PM|   PM|   PM
        ||----------------------------------|-----------------------------------||
        ||o---------------------------------|-----------------8-----8-----8----o||
        ||--7-----7-----7---7-----7-----7---|-5-----5-----5---7-----7-----7-----||
        ||--0-0-0-0-0-0-0-0-0-0-0-0-0-0-0-0-|-0-0-0-0-0-0-0-0-0-0-0-0-0-0-0-0---||
        ||o---------------------------------|----------------------------------o||
        ||----------------------------------|-----------------------------------||

       D
Oh the heads that turn

 Csus2/D       G5/D
Make my back burn

           D
And those heads that turn

 Csus2/D               G5/D
Make my back - make my back burn


INTERLUDE (w/Riff 5  x2)

RIFF 5:     G5/D5                       Bm/DD5      G5/D                  D
        ||----------------------------------------|----------------------------------||
        ||o---------------------------------------|---------------------------------o||
        ||--12s14--14-14-14-14-14-14-14s16--14-14p|=12--12-12-12-12-12-12p11--7-7-7--||
        ||---0-(0)--0--0--0--0--0--0--0-(0)--0--0-|-(0)--0--0--0--0--0--0-(0)-0-0-0--||
        ||o---------------------------------------|---------------------------------o||
        ||----------------------------------------|----------------------------------||
        |
        |   Gtr III
        ||----------------------------------------|------------------------3--3-3----||
        ||o---------------------------------------|------------------------3--3-3---o||
        ||----------------------------------------|------------------------0--0-0----||
        ||----------------------------------------|------------------------x--x-x----||
        ||o---------------------------------------|------------------------2--2-2---o||
        ||----------------------------------------|------------------------3--3-3----||


VERSE 2 (w/ Riff 4 x2) 

The sparkle in your eyes
Keeps me alive
And the sparkle in your eyes
Keeps me alive - keeps me alive


CHORUS (w/ Riff 4 x2) (As verse but add Guitar III chord fill)

RIFF 4:    D                                 Csus2/D         G5/D
           PM|   PM|   PM  PM|   PM|   PM    PM|   PM|   PM  PM|   PM|   PM
        ||----------------------------------|-----------------------------------||
        ||o---------------------------------|-----------------8-----8-----8----o||
        ||--7-----7-----7---7-----7-----7---|-5-----5-----5---7-----7-----7-----||
        ||--0-0-0-0-0-0-0-0-0-0-0-0-0-0-0-0-|-0-0-0-0-0-0-0-0-0-0-0-0-0-0-0-0---||
        ||o---------------------------------|----------------------------------o||
        ||----------------------------------|-----------------------------------||
|        |   Gtr III
        ||----------------------------------|-------------------------3--3-3----||
        ||o---------------------------------|-------------------------3--3-3---o||
        ||----------------------------------|-------------------------0--0-0----||
        ||----------------------------------|-------------------------x--x-x----||
        ||o---------------------------------|-------------------------2--2-2---o||
        ||----------------------------------|-------------------------3--3-3----||

And the world
And the world turns around
The world and the world yeah yeah
The world drags me down


INTERLUDE (w/Riff 3  x2)


VERSE 3 (w/ Riff 4 x2)

Oh the heads that turn
Make my back burn
And those heads that turn
Make my back - make my back burn yeah yeah


INTERLUDE (w/Riff 5  x2)  Yeah yeah he-hey  Yeah yeah he-hey


VERSE 4 (w/ Riff 4 x4) 

The fire in your eyes
Keeps me alive
And the fire in your eyes
Keeps me alive

I'm sure in her you'll find
The sanctuary
I'm sure in her you'll find
The sanctuary


cHORUS  X2

And the world
The world turns around  
And the world and the world
The world drags me down  

And the world and the world and the world
The world turns around   
And the world and the world and the world and the world
The world drags me down 


INTRO RIFF


DRUMS AND GUITAR BREAK  Yeah yeah he-hey  Yeah yeah he-hey  

  D5 G5/D  D5 G5/D  D5 G5/D  D5 G5/D  D5
  Gtrs I, II
|-----------------------------------------|-----------------------------------------|
|-----------------------------------------|-----------------------------------------|
|-14-12-11-14-12-11-14-12-11-14-12-11-14--|-14-12-11-14-12-11-14-12-11-14-12-11-14--|
|--0--0--0--0--0--0--0--0--0--0--0--0--0--|--0--0--0--0--0--0--0--0--0--0--0--0--0--|
|-----------------------------------------|-----------------------------------------|
|-----------------------------------------|-----------------------------------------|
|
| Gtr III
|-----------------------------------------|-----------------------------3--3-----3--|
|-----------------------------------------|-----------------------------3--3-----3--|
|-----------------------------------------|-----------------------------0--0-----0--|
|-----------------------------------------|-----------------------------0--0-----0--|
|-----------------------------------------|-----------------------------2--2-----2--|
|-----------------------------------------|-----------------------------3--3-----3--|


CHORUS X2

( Yeah yeah he-hey )  And the world
( Yeah yeah he-hey )  And the world turns around  
( Yeah yeah he-hey )  And the world and the world
( Yeah yeah he-hey )  Yeah the world drags me down  

( Yeah yeah he-hey )  And the world
( Yeah yeah he-hey )  Yeah the world turns around 
( Yeah yeah he-hey )  And the world and the world
( Yeah yeah he-hey )  The world drags me down  


OUTRO (W/ riff 3 X2)

Yeah yeah he-hey  
Sanctuary  Sanctuary     


FADE OUT 
   
w/ RIFF1
Show more