-------------------------------------------------------------------------------
			     She Sells Sanctuary - The Cult
-------------------------------------------------------------------------------
Tabbed by: guitar is yummy
Email: dw594@hotmail.com

  INTRO

e|-----------------------------------------------------------------------------|
B|-----------------------------------------------------------------------------|
G|-----14------12-------11-------7----------5h-7---5h-7---5h-7-------2---------|
D|--0------0--------0---------0---------0-------------------------0------------|
A|-----------------------------------------------------------------------------|
E|-----------------------------------------------------------------------------|

e|-----------------------------------------------------------------------------|
B|-----------------------------------------------------------------------------|
G|------14-------12-------16------12-------12h-14---12h-14---12h-14------15----|
D|--0--------0--------0--------0-------0-------------------------------0-------|
A|-----------------------------------------------------------------------------|
E|-----------------------------------------------------------------------------|


  OTHER PARTS


e|-----------------------------------------------------------------------------|
B|-----------------------------------------------------------------------------|
G|-14-14----12-12---11-12-11--7-7--5-5--7-7--------14-14--12-12--16-16--11-----|
D|-0--0-----0--0----0--0--0----0-0--0-0--0-0--------0--0---0--0---0--0---0-----|
A|-----------------------------------------------------------------------------|
E|-----------------------------------------------------------------------------|

e|-----------------------------------------------------------------------------|
B|-----------------------------------------------------------------------------|
G|-11-11-11-------------14--14-14--14------12-12-12-12-------16-16-16-16-------|
D|-0--0--0--------------0---0---0---0-------0--0--0--0--------0--0--0--0-------|
A|-----------------------------------------------------------------------------|
E|-----------------------------------------------------------------------------|

e|-----------------------------------------------------------------------------|
B|-----------------------------------------------------------------------------|
G|-11-11-11-11-----------------------------------------------------------------|
D|-0--0--0--0------------------------------------------------------------------|
A|-----------------------------------------------------------------------------|
E|-----------------------------------------------------------------------------|

| /  slide up
| \  slide down
| h  hammer-on
| p  pull-off
| ~  vibrato
| +  harmonic
| x  Mute note
===============================================================================
Show more