• Song:

    Alt End

  • Artist:

    The Cure

sponsored links
The Cure
alt.end

Standard Tuning (EADGBE)

One of The Cure best songs from their new album.

Intro/Verse:

Guitar 1
E|--------------------------------------------------|
B|--------------------------------------------------|
G|--2-----4-------5--5------5-----4-------7--7-----|
D|-2-----2-------4--4------7-----2-------4--4------|
A|0---0-3---3-3/5--5------0---0-3---3-3/5--5-------|
E|--------------------------------------------------|

Guitar 2
E|---------------------------------------------------|
B|---------------------------------------------------|
G|---------------------------------------------------|
D|---------------------------------------------------|
A|/777733333/55555555-/77773333300000000-----------|
E|---------------------------------------------------|

And then:
E|---------------------------------------------------------------|
B|---------------------------------------------------------------|
G|---------------------------------------------------------------|
D|---------------------------------------------------------------|
A|/777733333/55555555-/7777/1010101010/1212121212121212---------|
E|---------------------------------------------------------------|


Chorus:

Guitar 1 and 2 keep playing the same verse stuff. 

Guitar 3 (played on an acoustic)
I don't know how chords are played because the guitar is very low. Anyway here are the notes:  
  
"I don't want..."

A (1 bar)  C (1 bar) D (2 bars)

Little fill played by guitar 2 at the end of chorus and bridge:

E|-------------------------------------|
B|-------5-----------------------------|
G|---------4-5-------------------------|
D|-----5-------------------------------|
A|-5h7---------------------------------|
E|-------------------------------------|


Bridge:

Guitar 2
E|--------------------------------------|
B|--------------------------------------|
G|--------------------------------------|
D|--------------------------------------|
A|-0000777733333333--------------------|
E|--------------------------------------|


Guitar 3

A (1 bar)  E (1 bar)  C ( 2 bars)


P.S.: This is my first tab so please rate it! Any comment would be welcome.
Show more
sponsored links
sponsored links