sponsored links
Base Intro: Guitarra 1(Justin Hawkins)(G5 D5 A5 G5 G5 D5 A5)2x
Intro: Guitarra 2 (Dan Hawkins)
e | ----------------------------------------------
B | -12-12--12-12--10-10-10---------------------8-
G | ---------------------------9-9--11-11--9------
D | ------------------------12---------------12---
A | ----------------------------------------------
E | ----------------------------------------------

e | -------17---------------17---------17-------------
B | -17b19----17b19r--17b19----b19(17)----b19(17)r-17-
G | --------------------------------------------------
D | --------------------------------------------------
A | --------------------------------------------------
E | --------------------------------------------------

e | -17-------------- | ---------------------------10-12-
B | ----15-14--12-10- | -12-12--12-12--10-10-10--12------
G | ----------------- | ---------------------------------
D | ----------------- | ---------------------------------
A | ----------------- | ---------------------------------
E | ----------------- | ---------------------------------

e | -10-12b13r-12-10-----19-19-19--17-17-17--15-15-15--
B | -----------------12--------------------------------
G | ---------------------------------------------------
D | ---------------------------------------------------
A | ---------------------------------------------------
E | ---------------------------------------------------

e | -14-14-14--12-12-12-- | 
B | --------------------- | 
G | --------------------- | 
D | --------------------- | 
A | --------------------- | 
E | --------------------- | 

( G D9 A G )
The first flush of youth was upon you when our eyes first met
( G D9 A )
And I knew that to you and into your life I had to get
( G D9 A G )
I felt light-headed at the touch of this strangers hand
( G D9 A )
An assault my defences systematically failed to withstand
                   Em
Cos you came at a time
                              A
When the pursuit of one true love in which to fall
Em                     B5
Was the be all and end all
        G5      D5
Love is only a feeling
   A5
(Drifting away)
B5                  G5              D5
   When I'm in your arms I start believing
  A5
(It's here to stay)
B5              G5      D5
    But love is only a feeling
A5      G5
    Anyway


( G5 D5 A5 G5 G5 D5 A5 )Base Guitarra 1

solo guitarra 2
e | ---------------------------10-12-
B | -12-12--12-12--10-10-10--12------
G | ---------------------------------
D | ---------------------------------
A | ---------------------------------
E | ---------------------------------

e | -10-12b13r-12-10-----19-19-19--17-17-17--15-15-15--
B | -----------------12--------------------------------
G | ---------------------------------------------------
D | ---------------------------------------------------
A | ---------------------------------------------------
E | ---------------------------------------------------

e | -14-14-14--12-12-12--14-14-14--15-15-15-- | 
B | ----------------------------------------- | 
G | ----------------------------------------- | 
D | ----------------------------------------- | 
A | ----------------------------------------- | 
E | ----------------------------------------- | 

( G D9 A G )
The state of elation that this union of hearts achieved
( G D9 A )
I had seen, I had touched, I had tasted and I truly believed
                      Em
That the light of my life
                                       A
Would tear a hole right through each cloud that scudded by
Em                          B5
    Just to beam on you and I
        G5       D5
Love is only a feeling
   A5
(Drifting away)
B5                   G5               D5
    When I'm in your arms I start believing
 A5        
(It's here to stay)
B5              G5       D5
    But love is only a feeling
A5      G5              G5
    Anyway,             anyway

Base solo 
( B5 G5 D5 A5 ) (Justin)
solo (Dan)


B5        G5       D5
  Love is only a feeling
   A5
(Drifting away)
B5                   G5               D5
    When I'm in your arms I start believing
 A5        
(It's here to stay)
B5              G5       D5
    But love is only a feeling
A5      G5              G5
    Anyway,            

Base solo 
( B5 G5 D5 A5 )6x termina em B5 
(Dan)

Solo (Justin)


( G D9 A G )
Show more
sponsored links
sponsored links