sponsored links
Intro
e|---5-----5-----5------3--|
B|--6-6---6-6---6-6---3--3-|
G|/7---7-6---6-5---5-4-4--4|
D|-------------------------|
A|-------------------------|
E|-------------------------|
Repeat until 0:24
e|--3--3----6---6-6---3-----4--4--4-----4--4--4---|
B|-6-6--6----3---3-3-6-6---5-5--5--5---5-5--5--5--|
G|3---3----3---3----3---3-4---4--4--4-4---4--4--4-|
D|------------------------------------------------|
A|------------------------------------------------|
E|------------------------------------------------|

e|--5--5--5-----5--5--5-----6--6--6-----6-----6---|
B|-5-5--5--5---5-5--5--5---5-5--5--5---5-5---5-5--|
G|5---5--5--5-5---5--5--5-5---5--5--5-5---5-6---6-|
D|------------------------------------------------|
A|------------------------------------------------|
E|------------------------------------------------|
Repeat ALL Until solo (1:33)
Some overdrive/distortion needed; most of these notes are hammer-ons.
e|-----------------------------------------|
B|-----------------------------------------|
G|------(b9)7-------------------------------|
D|----------10-8-----7-8-10-8-7-8-7--------|
A|/5-7-8----------------------------10-8-7-|
E|-----------------------------------------|

e|--------------------------------------------------|
B|----------------------------------------13b15-----|
G|------10---(b9)7-7------------10-7-(b9)7--------------|
D|--6-(b9)-----------10-10-(b9)10----------10-----------|
A|7-------------------------------------------------|
E|--------------------------------------------------|

Outro (after the apocalyptic breakdown)
e|----------------------------------------------------|
B|----------------------------------------------------|
G|----------------------------------------------------|
D|----------------------------------------------------|
A|5-4---3-2---1-------------------2-5-3-2-0---0-1-3-4-|
E|----5-----3------3----1----0--4-----------0---------|
And repeat.
Show more
sponsored links
sponsored links