• Song:

    Arms Around Me

  • Artist:

    The Departure

  • Album:

    Arms Around Me

Arms Around Me Chords by The Departure

This is me first tab on here and I just figured it out but I'm sure this is right. I 
someone can post me the lead for this song--Ill try to figure it out in the meantime but 
guitars layered a few times im sure

these are the chords after the intro riff and follows the bass
Tuning DADGBE

E--------------------------------------|
B--------------------------------------|
G--4-------7-------9-------------------|
D--4-(x8)--7--(x8)-9-(x8)--------------|
A--4-------7-------9-------------------|
D--4-------7-------9-------------------|

then it goes on to "doesnt wanna die" which is where thye chord on 12th fret comes in

E-----------------------------------------|
B-----------------------------------------|
G--4-------7-------9--------12------------|
D--4-(x8)--7--(x8)-9-(x8)---12------------|
A--4-------7-------9--------12------------|
D--4-------7-------9--------12------------|

"if this is not temptation"
E------------------------|
B------------------------|
G----12------------------|
D----12------------------|
A----12------------------|
D----12------------------|

thats as best i can do sorry---at least it helps a little Ill try and improvere it in the next few days
flea
Show more