• Song:

    This Song Is Called

  • Artist:

    The Devil Wears Prada

  • Album:

    Plagues

sponsored links
The Devil Wears Prada
This Song Is Called
Drop D
jj.rizz0@hotmail.com

0:04-0:14
G|---------------------------------------------------------------------|
D|---------------------------------------------------------------------|
A|---------------------------------------------------------------------|
D|------------8~~~~~~--5-5—7~~~~~~0~~~~~~~-----------------------------|
0:14-0:28
G|---------------------------------------------------------------------|
D|---------------------------------------------------------------------|
A|---------------------------------------------------------------------|
D|8888888888888888-5555555555555555-0000000000000000000000000000000----|x2

0:28-0:41
G|-----------------------------------------------------|
D|-----------------------------------------------------|
A|-----------------------------------------------------|
D|8888888888888888-5555555555555555-0~~~~~~~~0-0-0-0---|

0:43-0:57
(Not too sure about this part, I taxed it off an guitar tab… good enough)
G|--------------------------------------------|
D|--------------------------------------------|
A|---5/7--------------------5/7---------------|
D|-00-----8-7--3-3-3-5555-00-----8-7—3-33333--|x3

0:57-1:02
G|--------------------------------------------------|
D|--------------------------------------------------|
A|---5/7--------------------------------------------|
D|-00-----8-7--3-3-3-5555-888888881010101010101010--|

1:02-1:14
G|----------------------------------------------|
D|----------------------------------------------|
A|--------------------8~----------7~/5~~--------|
D|0-0-0-0-----0-0-0-0-----0-0-0-0---------------|

1:14-1:53
G|----------------------------------------------------------------------------------------------|
D|----------------------------------------------------------------------------------------------|
A|----------------------------------------------------------------------------------------------|
D|---0-0-----0-----0-0-----0-0-------0-------0-------0---------0-------0--------0--------0------|

1:53-2:06
(Not Sure about this part either, I couldn’t figure it out, so here ya go :D)
G|----------------------------------------------------------------------|
D|----------------------------------------------------------------------|
A|----------------------------------------------------------------------|
D|-00000000000000000000000000000000000000000000000000000000000000000----|

2:07-2:20
G|----------------------------------|
D|----------------------------------|
A|----------------------------------|
D|-0-0-0-0~-0-0-0-0~-00-0-0-0-0~----|x4

2:20-2.32
G|----------------------------|
D|----------------------------|
A|----------------------------|
D|-0---0---0---0---0/12\0-----|x4



2:32-2:45
G|----------------------|
D|----------------------|
A|----------------------|
D|-00-00-00000000-------|x4

2:46-2:58
G|-------------------------------------------|
D|-------------------------------------------|
A|-------------------------------------------|
D|-00---00000000-------00---00000000-8-7-5-3-|x2

2:59-3:05
G|--------------------------------------------|
D|--------------------------------------------|
A|--------------------------------------------|
D|-00~00~00000000~-----00~00~00000000-8-7-5-3-|

3:05-3:10
G|-----------------------------------|
D|-----------------------------------|
A|-----------------------------------|
D|-00---00000000~-----00~00~00000000-|

3:10-3:12
G|--------------|
D|--------------|
A|--------------|
D|-0---0-0-----0|

3:14-3:29
G|----------------------------------------------------------------------------------------------|
D|----------------------------------------------------------------------------------------------|
A|----------------------------------------------------------------------------------------------|
D|-0----0000000---0-0---0-0----0000000---0-0---0-0----0000000---0-0---0-0----00000004~~3~~~1~~~~|

3:29-3:47
G|----------------------------------------------------------------------------------------------|
D|----------------------------------------------------------------------------------------------|
A|----------------------------------------------------------------------------------------------|
D|-0----0000000---0-0---0-0----0000000---0-0---0-0----0000000---0-0---0-0----00000004~~3~~~1~~~~|

3:47-end.
G|--------------|
D|--------------|
A|--------------|
D|-0~~~~~~~~~~~~|
Show more
sponsored links
sponsored links