• Song:

    Think Of Me

  • Artist:

    The Drowners

  • Album:

    Bumperstar

Think Of Me Tab by The Drowners


tabbed by the ooober cool master of guitar (toad)

if questions don't be afriad to ask toad_guy45@hotmail.com... good luck and go 
any problems with reading the tab, copy and paste the tab into note pad with courier font. it 
be easier to read.

+ = exclude the repeat x () and play once at the end of repititions
 { optional notes }

    		opening
	Guitar one (with some kind of tremolo effect)
e|-------------------+---------------0-----------------|
b|-3---7-------------+-----------------3---------------|
g|-4---7---4---3-6---+-------4-----4------------0------|
d|-4---7---5---4-7---+-----5-----4------------2--------|
a|-2---5---5---4-7---+---5-----2------------2----------| repeat 6x
e|---------3---2-5---+-3------------------0------------|

		opening
	Guitar two (distortion)
e|---------------------------------------------------------+---------------------|
b|---------------------------------------------------------+---------------------|
g|---------------------------------------------------------+---------------------|
d|-4-4--4-4-4---7-7--7-7-7--7------------------------------+---5---4---2---------|
a|-2-2--2-2-2---5-5--5-5-5--5---5-5--5-5-5-5--4-4-4--7-7---+---5---4---2---------|4x
e|------------------------------3-3--3-3-3-3--2-2-2--5-5---+---3---2---0---------|

	chorus
	Guitar two
e|-------------------------------------|
b|-------------------------------------|
g|-------------------------------------|
d|---9-9--7-7--------{-12-12-12-12/9}--|repeat 4x
a|---7-7--5-5--5-5---{-10-10-10-10/7}--|
e|-------------3-3---------------------|

	tid bit
	Guitar two	     synth ( for guitar )
e|--------------------------|------------------|
b|--------------------------|----7/10-7/10/7---|
g|--------------------------|------------------| repeat 2x
d|--------------------------|------------------|
a|---9-9-9--7--9--7--12-----|------------------|
e|---7-7-7--5--7--5--10-----|------------------|

 	Bass intro *note* Bass follows guitar two through the song (room for improv)
g|----------------------------------------------------------------------|
d|----------------------------------------------------------------------|
a|--2-2--2-2-2--2---5-5--5-5-5-5----------------------------------------|
e|--------------------------------3-3--3-3-3--3--2-2--2-2--5-5-5--------|

		solo ( pafahhfhh it's as easy as fire in hell burns)
e|------------------------------------------------------------------------|
b|------------------------------------------------------------------------|
g|-----9-9-9-7---------------------9-9-9-7-9/11-9-9-11-11b12R11-----------|
d|-------------9-9-9-7----7h9p7h9-----------------------------------------|
a|----------------------9-------------------------------------------------|
e|------------------------------------------------------------------------|
	outro
	Guitar one
e|------------------------------------------------|
b|-----0----3----0--------------------------------|
g|----2----4----2--------------------{0}-{0}-{0}--|
d|---2----4----2---------------------2---5---7----|
a|--2----2----2-----7--9--7---9-----2---5---7-----|
e|------------------5--7--5---7----0---3---5------|

	Order
 opening - chorus - tid bit - bass into with synth - chorus - solo - outro - chorus
Show more