God Bless The Sos Tab by The Explosion


The explosion - god bless the s.o.s
tab by pool

so of the few explosion tabs that I can find, there doesn't
seem to be many from 'flash flash flash'. being that this
album is so god damn amazing, I figured there ought to be 
some tabs for at least a few of the tracks on it. 
everything's laid out as far as the rhythm goes, but giving 
a listen to the song before hand should give you perspective 
on what's going on here.
any comments or querries can be forwarded to me at 
anotherpedagogue@hotmail.com
enjoy

e[-------------------------------------------------------]
B[-------------------------------------------------------]
G[6-6-66-6-6-66------------------------------------------]  X2
D[6-6-66-6-6-66-6-6-66-6-6-66-7-7-77-7-7-77-6-6-66-6-6-66]
A[4-4-44-4-4-44-6-6-66-6-6-66-7-7-77-7-7-77-6-6-66-6-6-66]
E[--------------4-4-44-4-4-44-5-5-55-5-5-55-4-4-44-4-4-44]

e[-------------------------------------------------------]
B[-------------------------------------------------------]
G[6-6-66-6---9-------------9-------------9---------------]  X2
D[6-6-66-6---9--7-7-77-7---9--9-9-99-9---9--7-7-77-7-7-77]
A[4-4-44-4---7--7-7-77-7---7--9-9-99-9---7--7-7-77-7-7-77]
E[--------------5-5-55-5------7-7-77-7------5-5-55-5-5-55]

e[-------------------------------------------------------]
B[-------------------------------------------------------]
G[9-9-99-9-9-99---------------4-4-44-4-4-44--------------]  X2
D[9-9-99-9-9-99-7-7-77-7-7-77-4-4-44-4-4-44-7-7-77-7-7-77]
A[7-7-77-7-7-77-7-7-77-7-7-77-6-6-66-6-6-66-7-7-77-7-7-77]
E[--------------5-5-55-5-5-55---------------5-5-55-5-5-55]

e[-------------------------------------------------------]
B[-------------------------------------------------------]
G[99-9-9--------99-9-9--------99-9-9--------99-9----9----]
D[99-9-9--------99-9-9--------99-9-9--------99-9----9----]
A[77-7-7--------77-7-7--------77-7-7--------77-7----7----]
E[-------------------------------------------------------]

e[-------------------------------------------------------]
B[-------------------------------------------------------]
G[6-6-66-6---9-------------9-------------9---------------]  X2
D[6-6-66-6---9--7-7-77-7---9--9-9-99-9---9--7-7-77-7-7-77]
A[4-4-44-4---7--7-7-77-7---7--9-9-99-9---7--7-7-77-7-7-77]
E[--------------5-5-55-5------7-7-77-7------5-5-55-5-5-55]

e[-------------------------------------------------------]
B[-------------------------------------------------------]
G[9-9-99-9-9-99---------------4-4-44-4-4-44--------------]  X2
D[9-9-99-9-9-99-7-7-77-7-7-77-4-4-44-4-4-44-7-7-77-7-7-77]
A[7-7-77-7-7-77-7-7-77-7-7-77-6-6-66-6-6-66-7-7-77-7-7-77]
E[--------------5-5-55-5-5-55---------------5-5-55-5-5-55]

e[-------------------------------------------------------]
B[-------------------------------------------------------]
G[9--9-9-9-9-9--------------6--6-6-6-6-6-6--6-6-6-6-6-6--]
D[9--9-9-9-9-9-7--7-7-7-7-7-6--6-6-6-6-6-6--6-6-6-6-6-6--]
A[7--7-7-7-7-7-7--7-7-7-7-7-4--4-4-4-4-4-4--4-4-4-4-4-4--]
E[-------------5--5-5-5-5-5------------------------------]
  D--D-U-D-U-D-D--D-U-D-U-D-D--D-U-D-U-D-D--D-U-D-U-D-U--

e[-------------------------------------------------------]
B[-------------------------------------------------------]
G[9--9-9-9-9-9--------------6--6-6-6-6-6-6-6-6-6-6-6-6-6-]
D[9--9-9-9-9-9-7--7-7-7-7-7-6--6-7-6-7-6-7-6-7-6-7-6-7-6-]
A[7--7-7-7-7-7-7--7-7-7-7-7-4--4-4-4-4-4-4-4-4-4-4-4-4-4-]
E[-------------5--5-5-5-5-5------------------------------]
  

e[-------------------]
B[-------------------]
G[6-6-6--------------]
D[6-6-6--9-9-9--7----]
A[4-4-4--9-9-9--7----]
E[-------7-7-7--5----]
Show more