All The Young Dudes Tab by The F-ups


Standard Tuning

verse(pt.1)
---------------------------------------------------------------------------------|
---------------------------------------------------------------------------------|
---------------------------------------------------------------------------------|
---------------------------------------------------------------------------------|
-11-11-11-11-11-11-11-11-10-10-10-10-10-10-10-10-8-8-8-8-8-8-8-8-6-6-6-6-6-6-6-6-|
--9--9--9--9--9--9--9--9--8--8--8--8--8--8--8--8-6-6-6-6-6-6-6-6-4-4-4-4-4-4-4-4-|

-----------------------------------------------------------------|
-----------------------------------------------------------------|
-----------------------------------------------------------------|
-----------------------------------------------------------------|
-3-3-3-3-3-3-3-3-3-3-3-3-3-3-3-3-6-6-6-6-6-6-6-6-6-6-6-6-6-6-6-6-|
-1-1-1-1-1-1-1-1-1-1-1-1-1-1-1-1-4-4-4-4-4-4-4-4-4-4-4-4-4-4-4-4-|


verse(pt.2)
-----------------------------------------------------------------|
-----------------------------------------------------------------|
-----------------------------------------------------------------|
-1-1-1-1-1-1-1-1-1-1-1-1-1-1-1-1-3-3-3-3-3-3-3-3-8-8-8-8-6-6-6-6-|
-1-1-1-1-1-1-1-1-1-1-1-1-1-1-1-1-3-3-3-3-3-3-3-3-8-8-8-8-6-6-6-6-|
---------------------------------1-1-1-1-1-1-1-1-6-6-6-6-4-4-4-4-|

-------------------------------------------------------------------|
-------------------------------------------------------------------|
-------------------------------------------------------------------|
-4-4-4-4-4-4-4-4-3-3-3-3-3-3-3-3-3-6-6-6-6-6-6-6-6-6-6-6-6-6-6-6-6-|
-4-4-4-4-4-4-4-4-3-3-3-3-3-3-3-3-3-6-6-6-6-6-6-6-6-6-6-6-6-6-6-6-6-|
-2-2-2-2-2-2-2-2-1-1-1-1-1-1-1-1-1-4-4-4-4-4-4-4-4-4-4-4-4-4-4-4-4-|

chorus
---------------------------------------------------------------------------------|
---------------------------------------------------------------------------------|
-----------------------------------------------------------------4-4-4-4---4---6-|
-11-11-11-11-10-10-10-10-8-8-8-8-6-6-6-6-6-6-6-6-4-4-4-4-2-2-2-2-4-4-4-4-4-4-6-6-|
-11-11-11-11-10-10-10-10-8-8-8-8-6-6-6-6-6-6-6-6-4-4-4-4-2-2-2-2-2-2-2-2-4-2-6-4-|
--9--9--9--9--8--8--8--8-6-6-6-6-4-4-4-4-4-4-4-4-2-2-2-2-0-0-0-0---------2---4---|

riff
-13------13-11h13-11h13-11-8-9-------9-8h9-8h9---6-8-8-8-8-6-------6-8-8-8-8-6--13-|
----14-------------------------11--------------9-------------9-9-9-------------9---|
-------13--------------------------10----------------------------------------------|
-----------------------------------------------------------------------------------|
-----------------------------------------------------------------------------------|
-----------------------------------------------------------------------------------|


solo
-13------13-11h13-11h13-11-8-9-------9-8h9-8h9---6-8-8-8-8-6-------6-8-8-8-8-6----|
----14-------------------------11--------------9-------------9-9-9-------------9--|
-------13--------------------------10---------------------------------------------|
----------------------------------------------------------------------------------|
----------------------------------------------------------------------------------|
----------------------------------------------------------------------------------|

-13-16-13-16-13-11---9-|
-----------------------|
-----------------------|
-----------------------|
-----------------------|
-----------------------|
Show more