• Song:

    No Sleep Tonight

  • Artist:

    The Faders

  • Album:

    Plug in +Play

sponsored links
No Sleep Tonight Tab by The Faders


The faders - no sleep tonight
Standard tuning
Tabber - Leon Jenkins

This is soooo easy to play, if u cant play this then u r crap, lol!
Personally I don't like this song but I thought Id give it a go!


Main line, played throughout verses and intros and stuff!

e|------------------------------|
B|------------------------------|
G|------------------------------|
D|------------------------------|
A|------------------------------|
E|--5-5-5-3-5-5-5-0-3-5---------|

Bridge

e|------------------------------|
B|------------------------------|
G|-----------14-----------------|
D|--7--------14--14-------------|
A|--7--------12--14-------------|
E|--5------------12-------------|

Solo thingy

e|------------------------------|
B|------------------------------|
G|--15b21-17-19-17-19-----------|
D|------------------------------| x3
A|------------------------------|
E|------------------------------|


e|------------------------------|
B|------------------------------|
G|--15b21-17-19-17-14-----------|
D|------------------------------|
A|------------------------------|
E|------------------------------|

Email me at ljenkins040@aol.com to let me know wat u think!
Show more
sponsored links
sponsored links