• Song:

    Tom Waits

  • Artist:

    The Fall Of Troy

  • Album:

    Doppelganger

Tom Waits Tab by The Fall Of Troy


E|----------------------------------------------------|
B|----------------------------------------------------|
G|----------------------------------------------------|
D|-------10-9-10-------10-9-10-------10-9-10-14-12-10-|
A|-7-7-7---------7-7-7---------7-7-7------------------|
E|----------------------------------------------------|

E|----------------------------------------------------|
B|----------------------------------------------------|
G|-------10-9-10-------10-9-10-------10-9-10-14-12-10-|
D|-7-7-7---------7-7-7---------7-7-7------------------|
A|----------------------------------------------------|
E|----------------------------------------------------|

E|----------------------------------------------------|
B|----------------------------------------------------|
G|----------------------------------------------------|
D|-------10-9-10-------10-9-10-------10-9-10-14-12-10-|
A|-7-7-7---------7-7-7---------7-7-7------------------|
E|----------------------------------------------------|

HE USES EFFECTS ON THIS PART SO THIS JUST SOUNDS LIKE IT.
E|----------------------------------------------------|
B|----------------------------------------------------|
G|----------------------------------------------------|
D|-7-7-7-7-7-7-7-7-7-7-7-7----------------------------|
A|-------------------------0-0-0-0-0-0-0-0-0-0-0-0----|
E|----------------------------------------------------|

E|----------------------------------------------------|
B|----------------------------------------------------|
G|-------------------------------------------12-10-9--|
D|-------10-9-10-------10-9-10-------10-9-10-14-12-10-|
A|-7-7-7---------7-7-7---------7-7-7------------------|
E|----------------------------------------------------|

E|----------------------------------------------------|
B|-------------------------------------------12-11-9--|
G|-------10-9-10-------10-9-10-------10-9-10-14-12-10-|
D|-7-7-7---------7-7-7---------7-7-7------------------|
A|----------------------------------------------------|
E|----------------------------------------------------|

E|----------------------------------------------------|
B|----------------------------------------------------|
G|-------------------------------------------12-10-9--|
D|-------10-9-10-------10-9-10-------10-9-10-14-12-10-|
A|-7-7-7---------7-7-7---------7-7-7------------------|
E|----------------------------------------------------|

E|----------------------------------------------------|
B|-------------------------------------------12-11-9--|
G|-------10-9-10-------10-9-10-------10-9-10-14-12-10-|
D|-7-7-7---------7-7-7---------7-7-7------------------|
A|----------------------------------------------------|
E|----------------------------------------------------|

THATS THE INTRO. PLAYED PRETTY FAST.
Show more