• Song:

    Cant Complain

  • Artist:

    The Hazzards

Cant Complain Chords by The Hazzards

  B B B B B B B 
 D D D D D D D D  
B B B B B B B  D D D D D D D D x2

  ^the rythm guiatr duz throught the whole song (lead guitar plays for a bit)

 then lead guitar comes in wiv this   v


 E------------------------|
 B------------------------|
 G----4---4---7---7-------| x2
 D---4-4-4-4-7-7-7-7------|
 A--2---2---5---5---------|
 E------------------------|


 after that lead guitar joins in with rythm (B+D)

 SOLO:

 E---------------------------|
 B-----3-3p5p3p5----6-8b8-6--|
 G-4-4-----------7-7---------|
 D---------------------------|
 A---------------------------|
 E---------------------------|


 Outro:

 hold single chords

 B       D        B        D       B       D


 its better 2 burn out (D) than fade away (B)
Show more