Dont Look Away Tab by The Helio Sequence


This is a band from portland,on the indie label sub-pop and you can check them out at 
or http://www.subpop.com/bands/helio/love_and_distance/

Artist: The Helio Sequence
Song: Don't Look Away
Album: Love and Distance
Label: Sub-Pop

Intro (Keyboards):
--15-15-15-1515-13-13-13-1313-12-12-12-12-12-1212-|
--------------------------------------------------|
--------------------------------------------------|  x4 And Then
--------------------------------------------------|
--------------------------------------------------|
--------------------------------------------------|
Guitar:
-------------------------------------------------|
-------------------------------------------------|
-------------------------------------------------|
5--5--3--3-3/14-14-1414-14-14--------------------| x4 And Then
5--5--3--3-3/14-14-1414-14-14--------------------|
3--3--1--1-1/12-12-1212-12-12--------------------|

Verse (Keyboard):
--15-15-15-1515-13-13-13-1313-12-12-12-12-12-1212-|
--------------------------------------------------|
--------------------------------------------------|  x4 And Then
--------------------------------------------------|
--------------------------------------------------|
--------------------------------------------------|

Chorus (On Guitar w/ Keyboard in Background)
-------------------------------------------------|
-------------------------------------------------|
-------------------------------------------------|
5--5--3--3-3/14-14-1414-14-14--------------------| x4 And Then
5--5--3--3-3/14-14-1414-14-14--------------------|
3--3--1--1-1/12-12-1212-12-12--------------------|

I still havn't tabbed the part where he sings "It Starts With a Tv..." Yet
But after that it's:

Verse:
Verse (Keyboard):
--15-15-15-1515-13-13-13-1313-12-12-12-12-12-1212-|
--------------------------------------------------|
--------------------------------------------------|  x4 And Then
--------------------------------------------------|
--------------------------------------------------|
--------------------------------------------------|

Chorus (On Guitar w/ Keyboard in Background)
-------------------------------------------------|
-------------------------------------------------|
-------------------------------------------------|
5--5--3--3-3/14-14-1414-14-14--------------------| x4 And Then
5--5--3--3-3/14-14-1414-14-14--------------------|
3--3--1--1-1/12-12-1212-12-12--------------------|

Then The Part thats untabbed again...
And then the song ends
Show more