• Song:

    I Was Only 19

  • Artist:

    The Herd

  • Album:

    The Sun Never Sets

I Was Only 19 Tab by The Herd


The Herd - I Was Only 19
Tabbed by Jeff Kingsbury



First Part
e|----0-------0-------3------2--------0-------3------0------0----------------|
B|------1-------1-------3------3--------1-------3------2------2--------------|
G|--2-------0-------0------2--------2-------0-------2-----2------------------|
D|--2-------2-------0------0--------2-------0-------2-----2------------------|
A|--0-------3-------2------0--------0-------2-------0-----0------------------|
E|------------------3-----------------------3--------------------------------|



Second part
e|----0------0-------2------0------------------------------------------------|
B|------0------0-------3------2----------------------------------------------|
G|--1------1-------2------2--------------------------------------------------|
D|--2------2-------0------2--------------------------------------------------|
A|--2------2-------0------0--------------------------------------------------|
E|--0------0-----------------------------------------------------------------|



Third part
e|----2-------0--------2-------2---------------------------------------------|
B|------2-------0--------3-------2-------------------------------------------|
G|--2-------1--------2-------2-----------------------------------------------|
D|--4-------2--------0-------2-----------------------------------------------|
A|--4-------2--------0-------0-----------------------------------------------|
E|--2-------0----------------------------------------------------------------|



Chorus
e|--2------------------------------------------------------------------------|
B|--3------------------------------------------------------------------------|
G|--2------------------------------------------------------------------------|
D|--0------------------------------------------------------------------------|
A|--0------------------------------------------------------------------------|
E|---------------------------------------------------------------------------|
Show more