Banging Camp Tab by The Hold Steady


----------------------------------------------------------------------------
	   Banging Camp - The Hold Steady
----------------------------------------------------------------------------
Tabbed by: Matt Mortensen
Email: fueled_by_feces@yahoo.com
Tuning: Standard Tuning


Intro & Verse

     B   E    B    E    B    E    C#   E
e|--------------------------------------------------------------------||
B|--------------------------------------------------------------------||
G|--4-4-------4-4-------4-4-------6-6---------------------------------||
D|--4-4--2-2--4-4--2-2--4-4--2-2--6-6--2-2------repeat----------------||
A|--2-2--2-2--2-2--2-2--2-2--2-2--4-4--2-2----------------------------||
E|-------0-0-------0-0-------0-0-------0-0----------------------------||


Chorus

When they say great white sharks!

    B   G#    F# \G#/ E
e|----------------------------------------------------------------||
B|----------------------------------------------------------------||
G|--4---4---------------------------------------------------------||
D|--4---4-----4-\(6)/-2-------------------------------------------||
A|--2---------4-\(6)/-2-------------------------------------------||
E|------4-----2-\(4)/-0-------------------------------------------||

		* This is a quick slide and not strummed or picked. If done right you'll know that it 
there.

Little Riff before the interlude

e|--/7-5-7-9-7-9-11--11-12-11-9-7---------------------------------------------||
B|----------------------------------------------------------------------------||
G|----------------------------------------------------------------------------||
D|----------------------------------------------------------------------------||
A|----------------------------------------------------------------------------||
E|----------------------------------------------------------------------------||

The interlude has 2 or 3 guitars making various noises plus the keys sound kind of like
so I'm not 100% sure
what is going on in there. If you have an idea send me an email.

2nd par tof interlude when guitars cme back in

    E    F#  G#   A
e|------------------------------------------------------||
B|------------------------------------------------------||
G|------------------------------------------------------||  2x palm muted then let ring through
D|--2---4----6----7-------------------------------------||  until the 8 count rest
A|--2---4----6----7----Each 16 times--------------------||
E|--0---2----4----5-------------------------------------||

Enjoy!
Show more